  0
SECTION
  2
HEADER
  9
$ACADVER
  1
AC1009
  9
$DWGCODEPAGE
  3
ansi_1252
  9
$INSBASE
 10
0.0
 20
0.0
 30
0.0
  9
$EXTMIN
 10
0.0
 20
0.0
 30
0.0
  9
$EXTMAX
 10
1800.0
 20
700.0
 30
0.0
  9
$LIMMIN
 10
0.0
 20
0.0
  9
$LIMMAX
 10
1800.0
 20
700.0
  9
$ORTHOMODE
 70
     0
  9
$REGENMODE
 70
     1
  9
$FILLMODE
 70
     1
  9
$QTEXTMODE
 70
     0
  9
$MIRRTEXT
 70
     1
  9
$DRAGMODE
 70
     2
  9
$LTSCALE
 40
1.0
  9
$OSMODE
 70
    37
  9
$ATTMODE
 70
     1
  9
$TEXTSIZE
 40
3.5
  9
$TRACEWID
 40
1.0
  9
$TEXTSTYLE
  7
STANDARD
  9
$CLAYER
  8
0
  9
$CELTYPE
  6
BYLAYER
  9
$CECOLOR
 62
   256
  9
$DIMSCALE
 40
1.0
  9
$DIMASZ
 40
2.5
  9
$DIMEXO
 40
0.0
  9
$DIMDLI
 40
3.75
  9
$DIMRND
 40
0.0
  9
$DIMDLE
 40
0.0
  9
$DIMEXE
 40
0.0
  9
$DIMTP
 40
0.0
  9
$DIMTM
 40
0.0
  9
$DIMTXT
 40
3.5
  9
$DIMCEN
 40
2.5
  9
$DIMTSZ
 40
0.0
  9
$DIMTOL
 70
     0
  9
$DIMLIM
 70
     0
  9
$DIMTIH
 70
     1
  9
$DIMTOH
 70
     1
  9
$DIMSE1
 70
     0
  9
$DIMSE2
 70
     0
  9
$DIMTAD
 70
     1
  9
$DIMZIN
 70
     0
  9
$DIMBLK
  1

  9
$DIMASO
 70
     1
  9
$DIMSHO
 70
     1
  9
$DIMPOST
  1

  9
$DIMAPOST
  1

  9
$DIMALT
 70
     0
  9
$DIMALTD
 70
     3
  9
$DIMALTF
 40
0.0393700787
  9
$DIMLFAC
 40
1.0
  9
$DIMTOFL
 70
     1
  9
$DIMTVP
 40
0.0
  9
$DIMTIX
 70
     0
  9
$DIMSOXD
 70
     0
  9
$DIMSAH
 70
     0
  9
$DIMBLK1
  1

  9
$DIMBLK2
  1

  9
$DIMSTYLE
  2
ISO-25
  9
$DIMCLRD
 70
     0
  9
$DIMCLRE
 70
     0
  9
$DIMCLRT
 70
     0
  9
$DIMTFAC
 40
1.0
  9
$DIMGAP
 40
1.524
  9
$LUNITS
 70
     2
  9
$LUPREC
 70
     2
  9
$SKETCHINC
 40
1.0
  9
$FILLETRAD
 40
10.0
  9
$AUNITS
 70
     0
  9
$AUPREC
 70
     2
  9
$MENU
  1
.
  9
$ELEVATION
 40
0.0
  9
$PELEVATION
 40
0.0
  9
$THICKNESS
 40
0.0
  9
$LIMCHECK
 70
     0
  9
$CHAMFERA
 40
0.0
  9
$CHAMFERB
 40
0.0
  9
$SKPOLY
 70
     0
  9
$TDCREATE
 40
2457787.45524441
  9
$TDUPDATE
 40
2457787.455244595
  9
$TDINDWG
 40
0.0000000116
  9
$TDUSRTIMER
 40
0.0000000116
  9
$USRTIMER
 70
     1
  9
$ANGBASE
 50
0.0
  9
$ANGDIR
 70
     0
  9
$PDMODE
 70
     0
  9
$PDSIZE
 40
-1.0
  9
$PLINEWID
 40
0.0
  9
$COORDS
 70
     1
  9
$SPLFRAME
 70
     0
  9
$SPLINETYPE
 70
     6
  9
$SPLINESEGS
 70
     8
  9
$ATTDIA
 70
     0
  9
$ATTREQ
 70
     1
  9
$HANDLING
 70
     1
  9
$HANDSEED
  5
352
  9
$SURFTAB1
 70
     6
  9
$SURFTAB2
 70
     6
  9
$SURFTYPE
 70
     6
  9
$SURFU
 70
     6
  9
$SURFV
 70
     6
  9
$UCSNAME
  2

  9
$UCSORG
 10
0.0
 20
0.0
 30
0.0
  9
$UCSXDIR
 10
1.0
 20
0.0
 30
0.0
  9
$UCSYDIR
 10
0.0
 20
1.0
 30
0.0
  9
$PUCSNAME
  2

  9
$PUCSORG
 10
0.0
 20
0.0
 30
0.0
  9
$PUCSXDIR
 10
1.0
 20
0.0
 30
0.0
  9
$PUCSYDIR
 10
0.0
 20
1.0
 30
0.0
  9
$USERI1
 70
     0
  9
$USERI2
 70
     0
  9
$USERI3
 70
     0
  9
$USERI4
 70
     0
  9
$USERI5
 70
     0
  9
$USERR1
 40
0.0
  9
$USERR2
 40
0.0
  9
$USERR3
 40
0.0
  9
$USERR4
 40
0.0
  9
$USERR5
 40
0.0
  9
$WORLDVIEW
 70
     1
  9
$SHADEDGE
 70
     3
  9
$SHADEDIF
 70
    70
  9
$TILEMODE
 70
     1
  9
$MAXACTVP
 70
    64
  9
$PLIMCHECK
 70
     0
  9
$PEXTMIN
 10
1.0000000000E+20
 20
1.0000000000E+20
 30
1.0000000000E+20
  9
$PEXTMAX
 10
-1.0000000000E+20
 20
-1.0000000000E+20
 30
-1.0000000000E+20
  9
$PLIMMIN
 10
0.0
 20
0.0
  9
$PLIMMAX
 10
420.0
 20
297.0
  9
$UNITMODE
 70
     0
  9
$VISRETAIN
 70
     1
  9
$PLINEGEN
 70
     0
  9
$PSLTSCALE
 70
     1
  0
ENDSEC
  0
SECTION
  2
TABLES
  0
TABLE
  2
VPORT
 70
     1
  0
VPORT
  2
*ACTIVE
 70
     0
 10
0.0
 20
0.0
 11
1.0
 21
1.0
 12
900.0
 22
350.0
 13
0.0
 23
0.0
 14
10.0
 24
10.0
 15
10.0
 25
10.0
 16
0.0
 26
0.0
 36
1.0
 17
0.0
 27
0.0
 37
0.0
 40
700.0
 41
2.5714285714
 42
50.0
 43
0.0
 44
0.0
 50
0.0
 51
0.0
 71
     0
 72
  2000
 73
     1
 74
     3
 75
     0
 76
     0
 77
     0
 78
     0
  0
ENDTAB
  0
TABLE
  2
LTYPE
 70
     6
  0
LTYPE
  2
CONTINUOUS
 70
     0
  3
Solid line
 72
    65
 73
     0
 40
0.0
  0
LTYPE
  2
HIDDEN
 70
     0
  3
Hidden __ __ __ __ __ __ __ __ __ __ __ __ __ __
 72
    65
 73
     2
 40
1.905
 49
1.27
 49
-0.635
  0
LTYPE
  2
PHANTOM
 70
     0
  3
Phantom ______  __  __  ______  __  __  ______
 72
    65
 73
     6
 40
12.7
 49
6.35
 49
-1.27
 49
1.27
 49
-1.27
 49
1.27
 49
-1.27
  0
LTYPE
  2
CENTER
 70
     0
  3
Center ____ _ ____ _ ____ _ ____ _ ____ _ ____
 72
    65
 73
     4
 40
10.16
 49
6.35
 49
-1.27
 49
1.27
 49
-1.27
  0
LTYPE
  2
CENTERX2
 70
     0
  3
Center (2x) ________  __  ________  __  _____
 72
    65
 73
     4
 40
20.32
 49
12.7
 49
-2.54
 49
2.54
 49
-2.54
  0
LTYPE
  2
DOT2
 70
     0
  3
Dot (.5x) ........................................
 72
    65
 73
     2
 40
0.635
 49
0.0
 49
-0.635
  0
ENDTAB
  0
TABLE
  2
LAYER
 70
     1
  0
LAYER
  2
0
 70
     0
 62
     7
  6
CONTINUOUS
  0
ENDTAB
  0
TABLE
  2
STYLE
 70
     1
  0
STYLE
  2
STANDARD
 70
     0
 40
0.0
 41
1.0
 50
0.0
 71
     0
 42
3.5
  3
txt
  4

  0
ENDTAB
  0
TABLE
  2
VIEW
 70
     0
  0
ENDTAB
  0
TABLE
  2
UCS
 70
     0
  0
ENDTAB
  0
TABLE
  2
APPID
 70
     1
  0
APPID
  2
ACAD
 70
     0
  0
ENDTAB
  0
TABLE
  2
DIMSTYLE
 70
     1
  0
DIMSTYLE
  2
ISO-25
 70
     0
  3

  4

  5

  6

  7

 40
1.0
 41
2.5
 42
0.625
 43
3.75
 44
1.25
 45
0.0
 46
0.0
 47
0.0
 48
0.0
140
2.5
141
2.5
142
0.0
143
0.0393700787
144
1.0
145
0.0
146
1.0
147
0.625
 71
     0
 72
     0
 73
     0
 74
     0
 75
     0
 76
     0
 77
     1
 78
     8
170
     0
171
     3
172
     1
173
     0
174
     0
175
     0
176
     0
177
     0
178
     0
  0
ENDTAB
  0
ENDSEC
  0
SECTION
  2
BLOCKS
  0
BLOCK
  8
0
  2
$MODEL_SPACE
 70
     0
 10
0.0
 20
0.0
 30
0.0
  3
$MODEL_SPACE
  1

  0
ENDBLK
  5
21
  8
0
  0
BLOCK
 67
     1
  8
0
  2
$PAPER_SPACE
 70
     0
 10
0.0
 20
0.0
 30
0.0
  3
$PAPER_SPACE
  1

  0
ENDBLK
  5
1D
 67
     1
  8
0
  0
BLOCK
  8
0
  2
SW_TABLEANNOTATION_0
 70
     0
 10
0.0
 20
0.0
 30
0.0
  3
SW_TABLEANNOTATION_0
  1

  0
LINE
  5
76
  8
0
  6
CONTINUOUS
 62
     0
 10
0.0
 20
0.0
 30
0.0
 11
0.0
 21
-74.0999990791
 31
0.0
  0
LINE
  5
77
  8
0
  6
CONTINUOUS
 62
     0
 10
0.0
 20
-74.0999990791
 30
0.0
 11
479.815625884
 21
-74.0999990791
 31
0.0
  0
LINE
  5
78
  8
0
  6
CONTINUOUS
 62
     0
 10
479.815625884
 20
-74.0999990791
 30
0.0
 11
479.815625884
 21
0.0
 31
0.0
  0
LINE
  5
79
  8
0
  6
CONTINUOUS
 62
     0
 10
479.815625884
 20
0.0
 30
0.0
 11
0.0
 21
0.0
 31
0.0
  0
LINE
  5
7A
  8
0
  6
CONTINUOUS
 62
     0
 10
93.4668343238
 20
-23.349999693
 30
0.0
 11
93.4668343238
 21
-74.0999990791
 31
0.0
  0
LINE
  5
7B
  8
0
  6
CONTINUOUS
 62
     0
 10
215.5683959143
 20
-23.349999693
 30
0.0
 11
215.5683959143
 21
-74.0999990791
 31
0.0
  0
LINE
  5
7C
  8
0
  6
CONTINUOUS
 62
     0
 10
344.0265483657
 20
-23.349999693
 30
0.0
 11
344.0265483657
 21
-74.0999990791
 31
0.0
  0
LINE
  5
7D
  8
0
  6
CONTINUOUS
 62
     0
 10
0.0
 20
-23.349999693
 30
0.0
 11
479.815625884
 21
-23.349999693
 31
0.0
  0
LINE
  5
7E
  8
0
  6
CONTINUOUS
 62
     0
 10
0.0
 20
-50.7499993861
 30
0.0
 11
479.815625884
 21
-50.7499993861
 31
0.0
  0
TEXT
  5
7F
  8
0
  6
CONTINUOUS
 62
     0
 10
212.5322564134
 20
-20.0355603792
 30
0.0
 40
19.05
  1
Puro
 41
0.7
 11
212.5322564134
 21
-26.7651645588
 31
0.0
 73
     1
  0
TEXT
  5
80
  8
0
  6
CONTINUOUS
 62
     0
 10
4.7175815191
 20
-43.0203961378
 30
0.0
 40
19.05
  1
Modell
 41
0.7
 11
4.7175815191
 21
-49.7500003174
 31
0.0
 73
     1
  0
TEXT
  5
81
  8
0
  6
CONTINUOUS
 62
     0
 10
107.1748341416
 20
-43.0203961378
 30
0.0
 40
19.05
  1
Laenge
 41
0.7
 11
107.1748341416
 21
-49.7500003174
 31
0.0
 73
     1
  0
TEXT
  5
82
  8
0
  6
CONTINUOUS
 62
     0
 10
245.3310825733
 20
-43.0203961378
 30
0.0
 40
19.05
  1
Breite
 41
0.7
 11
245.3310825733
 21
-49.7500003174
 31
0.0
 73
     1
  0
TEXT
  5
83
  8
0
  6
CONTINUOUS
 62
     0
 10
383.4695587247
 20
-43.0203961378
 30
0.0
 40
19.05
  1
Tiefe
 41
0.7
 11
383.4695587247
 21
-49.7500003174
 31
0.0
 73
     1
  0
TEXT
  5
84
  8
0
  6
CONTINUOUS
 62
     0
 10
18.5817504164
 20
-70.7855597653
 30
0.0
 40
19.05
  1
3167
 41
0.7
 11
18.5817504164
 21
-77.5151639449
 31
0.0
 73
     1
  0
TEXT
  5
85
  8
0
  6
CONTINUOUS
 62
     0
 10
126.3659483735
 20
-70.7855597653
 30
0.0
 40
19.05
  1
1200
 41
0.7
 11
126.3659483735
 21
-77.5151639449
 31
0.0
 73
     1
  0
TEXT
  5
86
  8
0
  6
CONTINUOUS
 62
     0
 10
258.6837225465
 20
-70.7855597653
 30
0.0
 40
19.05
  1
460
 41
0.7
 11
258.6837225465
 21
-77.5151639449
 31
0.0
 73
     1
  0
TEXT
  5
87
  8
0
  6
CONTINUOUS
 62
     0
 10
390.8073375314
 20
-70.7855597653
 30
0.0
 40
19.05
  1
125
 41
0.7
 11
390.8073375314
 21
-77.5151639449
 31
0.0
 73
     1
  0
ENDBLK
  5
75
  8
0
  0
ENDSEC
  0
SECTION
  2
ENTITIES
  0
LINE
  5
6F
  8
0
  6
CENTERX2
 62
     9
 10
633.6404081702
 20
236.66545837
 30
0.0
 11
1230.6404081702
 21
236.66545837
 31
0.0
  0
LINE
  5
70
  8
0
  6
CENTERX2
 62
     9
 10
633.6404081702
 20
236.66545837
 30
0.0
 11
36.6404081702
 21
236.66545837
 31
0.0
  0
LINE
  5
71
  8
0
  6
CENTERX2
 62
     9
 10
633.6404081702
 20
236.66545837
 30
0.0
 11
633.6404081702
 21
501.16545837
 31
0.0
  0
LINE
  5
72
  8
0
  6
CENTERX2
 62
     9
 10
633.6404081702
 20
236.66545837
 30
0.0
 11
633.6404081702
 21
47.16545837
 31
0.0
  0
INSERT
  5
88
  8
0
  6
CONTINUOUS
 62
     7
  2
SW_TABLEANNOTATION_0
 10
1270.7603673026
 20
332.8051074207
 30
0.0
  0
ARC
  5
89
  8
0
  6
CONTINUOUS
 62
     7
 10
36.6404081702
 20
47.16545837
 30
0.0
 40
3.000000000000007
 50
180.0
 51
270.0
  0
ARC
  5
8A
  8
0
  6
CONTINUOUS
 62
     7
 10
1230.6404081702
 20
501.16545837
 30
0.0
 40
3.0
 50
0.0
 51
90.0
  0
LINE
  5
8B
  8
0
  6
CONTINUOUS
 62
     7
 10
36.6404053091
 20
44.1654631384
 30
0.0
 11
1230.6404110312
 21
44.1654631384
 31
0.0
  0
ARC
  5
8C
  8
0
  6
CONTINUOUS
 62
     7
 10
36.6404081702
 20
501.16545837
 30
0.0
 40
2.999999999999893
 50
90.0
 51
179.9999999802
  0
LINE
  5
8D
  8
0
  6
CONTINUOUS
 62
     7
 10
33.6403843283
 20
501.1654505022
 30
0.0
 11
33.6403843283
 21
47.1654543169
 31
0.0
  0
LINE
  5
8E
  8
0
  6
CONTINUOUS
 62
     7
 10
1233.640432012
 20
47.1654543169
 30
0.0
 11
1233.640432012
 21
501.1654505022
 31
0.0
  0
LINE
  5
8F
  8
0
  6
CONTINUOUS
 62
     7
 10
1230.6404110312
 20
504.1654714831
 30
0.0
 11
36.6404053091
 21
504.1654714831
 31
0.0
  0
ARC
  5
90
  8
0
  6
CONTINUOUS
 62
     7
 10
1230.6404081702
 20
47.16545837
 30
0.0
 40
3.0
 50
270.0
 51
0.0000000001
  0
POLYLINE
  5
91
  8
0
  6
CONTINUOUS
 62
     7
 66
     1
 10
0.0
 20
0.0
 30
0.0
 70
   128
  0
VERTEX
  5
109
  8
0
  6
CONTINUOUS
 62
     7
 10
633.6404081702
 20
384.5812389143
 30
0.0
  0
VERTEX
  5
10A
  8
0
  6
CONTINUOUS
 62
     7
 10
636.4100460231
 20
384.6795418747
 30
0.0
  0
VERTEX
  5
10B
  8
0
  6
CONTINUOUS
 62
     7
 10
639.1016073793
 20
384.9685796984
 30
0.0
  0
VERTEX
  5
10C
  8
0
  6
CONTINUOUS
 62
     7
 10
641.6370455443
 20
385.4420193918
 30
0.0
  0
VERTEX
  5
10D
  8
0
  6
CONTINUOUS
 62
     7
 10
643.9470934018
 20
386.0826203116
 30
0.0
  0
VERTEX
  5
10E
  8
0
  6
CONTINUOUS
 62
     7
 10
645.9627175971
 20
386.872948099
 30
0.0
  0
VERTEX
  5
10F
  8
0
  6
CONTINUOUS
 62
     7
 10
647.6310143515
 20
387.7868959196
 30
0.0
  0
VERTEX
  5
110
  8
0
  6
CONTINUOUS
 62
     7
 10
648.8994654536
 20
388.7985059507
 30
0.0
  0
VERTEX
  5
111
  8
0
  6
CONTINUOUS
 62
     7
 10
649.7377619415
 20
389.8765155562
 30
0.0
  0
VERTEX
  5
112
  8
0
  6
CONTINUOUS
 62
     7
 10
650.1158472418
 20
390.9898856171
 30
0.0
  0
VERTEX
  5
113
  8
0
  6
CONTINUOUS
 62
     7
 10
650.0295453041
 20
392.1064743288
 30
0.0
  0
VERTEX
  5
114
  8
0
  6
CONTINUOUS
 62
     7
 10
649.4748495787
 20
393.1943187006
 30
0.0
  0
VERTEX
  5
115
  8
0
  6
CONTINUOUS
 62
     7
 10
648.4739274054
 20
394.2239889391
 30
0.0
  0
VERTEX
  5
116
  8
0
  6
CONTINUOUS
 62
     7
 10
647.0490336686
 20
395.1663979776
 30
0.0
  0
VERTEX
  5
117
  8
0
  6
CONTINUOUS
 62
     7
 10
645.2462557971
 20
395.9976443537
 30
0.0
  0
VERTEX
  5
118
  8
0
  6
CONTINUOUS
 62
     7
 10
643.1115303456
 20
396.6941991337
 30
0.0
  0
VERTEX
  5
119
  8
0
  6
CONTINUOUS
 62
     7
 10
640.7098086818
 20
397.239820052
 30
0.0
  0
VERTEX
  5
11A
  8
0
  6
CONTINUOUS
 62
     7
 10
638.1059625454
 20
397.6183393486
 30
0.0
  0
VERTEX
  5
11B
  8
0
  6
CONTINUOUS
 62
     7
 10
635.3762084653
 20
397.8224107512
 30
0.0
  0
VERTEX
  5
11C
  8
0
  6
CONTINUOUS
 62
     7
 10
632.5971258373
 20
397.8444942721
 30
0.0
  0
VERTEX
  5
11D
  8
0
  6
CONTINUOUS
 62
     7
 10
629.8474542599
 20
397.6864972599
 30
0.0
  0
VERTEX
  5
11E
  8
0
  6
CONTINUOUS
 62
     7
 10
627.2063438117
 20
397.350014139
 30
0.0
  0
VERTEX
  5
11F
  8
0
  6
CONTINUOUS
 62
     7
 10
624.7465746745
 20
396.8459376581
 30
0.0
  0
VERTEX
  5
120
  8
0
  6
CONTINUOUS
 62
     7
 10
622.5408060744
 20
396.1848774441
 30
0.0
  0
VERTEX
  5
121
  8
0
  6
CONTINUOUS
 62
     7
 10
620.6478836283
 20
395.3860559948
 30
0.0
  0
VERTEX
  5
122
  8
0
  6
CONTINUOUS
 62
     7
 10
619.1261891543
 20
394.4685467966
 30
0.0
  0
VERTEX
  5
123
  8
0
  6
CONTINUOUS
 62
     7
 10
618.0136461079
 20
393.4583970793
 30
0.0
  0
VERTEX
  5
124
  8
0
  6
CONTINUOUS
 62
     7
 10
617.3478566378
 20
392.3819222935
 30
0.0
  0
VERTEX
  5
125
  8
0
  6
CONTINUOUS
 62
     7
 10
617.1413302689
 20
391.2696400173
 30
0.0
  0
VERTEX
  5
126
  8
0
  6
CONTINUOUS
 62
     7
 10
617.4063958495
 20
390.1526042708
 30
0.0
  0
VERTEX
  5
127
  8
0
  6
CONTINUOUS
 62
     7
 10
618.1289689883
 20
389.0626737364
 30
0.0
  0
VERTEX
  5
128
  8
0
  6
CONTINUOUS
 62
     7
 10
619.2948358401
 20
388.0321541317
 30
0.0
  0
VERTEX
  5
129
  8
0
  6
CONTINUOUS
 62
     7
 10
620.8649702638
 20
387.0906093605
 30
0.0
  0
VERTEX
  5
12A
  8
0
  6
CONTINUOUS
 62
     7
 10
622.8004290059
 20
386.2676629313
 30
0.0
  0
VERTEX
  5
12B
  8
0
  6
CONTINUOUS
 62
     7
 10
625.0414425775
 20
385.5866798647
 30
0.0
  0
VERTEX
  5
12C
  8
0
  6
CONTINUOUS
 62
     7
 10
627.5284030742
 20
385.0707569607
 30
0.0
  0
VERTEX
  5
12D
  8
0
  6
CONTINUOUS
 62
     7
 10
630.1876906108
 20
384.7334840782
 30
0.0
  0
VERTEX
  5
12E
  8
0
  6
CONTINUOUS
 62
     7
 10
633.6404081702
 20
384.5812389143
 30
0.0
  0
SEQEND
  5
333
  8
0
  6
CONTINUOUS
 62
     7
  0
POLYLINE
  5
92
  8
0
  6
CONTINUOUS
 62
     7
 66
     1
 10
0.0
 20
0.0
 30
0.0
 70
   128
  0
VERTEX
  5
12F
  8
0
  6
CONTINUOUS
 62
     7
 10
633.6404081702
 20
386.4124724157
 30
0.0
  0
VERTEX
  5
130
  8
0
  6
CONTINUOUS
 62
     7
 10
636.4100467216
 20
386.5107753761
 30
0.0
  0
VERTEX
  5
131
  8
0
  6
CONTINUOUS
 62
     7
 10
639.1016087762
 20
386.7997982987
 30
0.0
  0
VERTEX
  5
132
  8
0
  6
CONTINUOUS
 62
     7
 10
641.6370483383
 20
387.2731932886
 30
0.0
  0
VERTEX
  5
133
  8
0
  6
CONTINUOUS
 62
     7
 10
643.9470961958
 20
387.913764406
 30
0.0
  0
VERTEX
  5
134
  8
0
  6
CONTINUOUS
 62
     7
 10
645.9627194598
 20
388.7040474899
 30
0.0
  0
VERTEX
  5
135
  8
0
  6
CONTINUOUS
 62
     7
 10
647.6310171455
 20
389.6179655083
 30
0.0
  0
VERTEX
  5
136
  8
0
  6
CONTINUOUS
 62
     7
 10
648.8994673162
 20
390.6295457371
 30
0.0
  0
VERTEX
  5
137
  8
0
  6
CONTINUOUS
 62
     7
 10
649.7377619415
 20
391.7075255402
 30
0.0
  0
VERTEX
  5
138
  8
0
  6
CONTINUOUS
 62
     7
 10
649.935723868
 20
392.2904738672
 30
0.0
  0
SEQEND
  5
334
  8
0
  6
CONTINUOUS
 62
     7
  0
POLYLINE
  5
93
  8
0
  6
CONTINUOUS
 62
     7
 66
     1
 10
0.0
 20
0.0
 30
0.0
 70
   128
  0
VERTEX
  5
139
  8
0
  6
CONTINUOUS
 62
     7
 10
617.3320632696
 20
392.2968664654
 30
0.0
  0
VERTEX
  5
13A
  8
0
  6
CONTINUOUS
 62
     7
 10
617.4063977122
 20
391.9835993536
 30
0.0
  0
VERTEX
  5
13B
  8
0
  6
CONTINUOUS
 62
     7
 10
618.1289745762
 20
390.8936986216
 30
0.0
  0
VERTEX
  5
13C
  8
0
  6
CONTINUOUS
 62
     7
 10
619.294844222
 20
389.8632088192
 30
0.0
  0
VERTEX
  5
13D
  8
0
  6
CONTINUOUS
 62
     7
 10
620.8649814397
 20
388.9216938503
 30
0.0
  0
VERTEX
  5
13E
  8
0
  6
CONTINUOUS
 62
     7
 10
622.8004420444
 20
388.0987921246
 30
0.0
  0
VERTEX
  5
13F
  8
0
  6
CONTINUOUS
 62
     7
 10
625.0414574786
 20
387.4178388603
 30
0.0
  0
VERTEX
  5
140
  8
0
  6
CONTINUOUS
 62
     7
 10
627.5284193724
 20
386.9019457586
 30
0.0
  0
VERTEX
  5
141
  8
0
  6
CONTINUOUS
 62
     7
 10
630.1877073746
 20
386.5647026785
 30
0.0
  0
VERTEX
  5
142
  8
0
  6
CONTINUOUS
 62
     7
 10
633.6404081702
 20
386.4124724157
 30
0.0
  0
SEQEND
  5
335
  8
0
  6
CONTINUOUS
 62
     7
  0
CIRCLE
  5
94
  8
0
  6
CONTINUOUS
 62
     7
 10
633.6404081702
 20
236.66545837
 30
0.0
 40
23.0
  0
LINE
  5
95
  8
0
  6
CONTINUOUS
 62
     7
 10
1230.6404110312
 20
47.1654543169
 30
0.0
 11
1230.6404110312
 21
501.1654505022
 31
0.0
  0
LINE
  5
96
  8
0
  6
CONTINUOUS
 62
     7
 10
36.6404053091
 20
47.1654543169
 30
0.0
 11
1230.6404110312
 21
47.1654543169
 31
0.0
  0
LINE
  5
97
  8
0
  6
CONTINUOUS
 62
     7
 10
36.6404053091
 20
501.1654505022
 30
0.0
 11
36.6404053091
 21
47.1654543169
 31
0.0
  0
LINE
  5
98
  8
0
  6
CONTINUOUS
 62
     7
 10
1230.6404110312
 20
501.1654505022
 30
0.0
 11
36.6404053091
 21
501.1654505022
 31
0.0
  0
LINE
  5
99
  8
0
  6
CONTINUOUS
 62
     7
 10
1150.6404873251
 20
60.0984552391
 30
0.0
 11
1190.9838911414
 21
60.1390907057
 31
0.0
  0
POLYLINE
  5
9A
  8
0
  6
CONTINUOUS
 62
     7
 66
     1
 10
0.0
 20
0.0
 30
0.0
 70
   128
  0
VERTEX
  5
143
  8
0
  6
CONTINUOUS
 62
     7
 10
1190.9838911414
 20
60.1390758045
 30
0.0
  0
VERTEX
  5
144
  8
0
  6
CONTINUOUS
 62
     7
 10
1193.2560798048
 20
60.1416388043
 30
0.0
  0
VERTEX
  5
145
  8
0
  6
CONTINUOUS
 62
     7
 10
1194.7451230406
 20
60.1431736239
 30
0.0
  0
VERTEX
  5
146
  8
0
  6
CONTINUOUS
 62
     7
 10
1195.8289142966
 20
60.1439186819
 30
0.0
  0
VERTEX
  5
147
  8
0
  6
CONTINUOUS
 62
     7
 10
1197.4446174025
 20
60.1451107748
 30
0.0
  0
VERTEX
  5
148
  8
0
  6
CONTINUOUS
 62
     7
 10
1199.0603205084
 20
60.1466455944
 30
0.0
  0
VERTEX
  5
149
  8
0
  6
CONTINUOUS
 62
     7
 10
1200.70612396
 20
60.1487615593
 30
0.0
  0
VERTEX
  5
14A
  8
0
  6
CONTINUOUS
 62
     7
 10
1203.3860083937
 20
60.1599076279
 30
0.0
  0
VERTEX
  5
14B
  8
0
  6
CONTINUOUS
 62
     7
 10
1205.8168050169
 20
60.2521607168
 30
0.0
  0
VERTEX
  5
14C
  8
0
  6
CONTINUOUS
 62
     7
 10
1208.2834836363
 20
60.6292346008
 30
0.0
  0
VERTEX
  5
14D
  8
0
  6
CONTINUOUS
 62
     7
 10
1209.3252536177
 20
60.9565386065
 30
0.0
  0
VERTEX
  5
14E
  8
0
  6
CONTINUOUS
 62
     7
 10
1210.2558013319
 20
61.3923230656
 30
0.0
  0
VERTEX
  5
14F
  8
0
  6
CONTINUOUS
 62
     7
 10
1211.793958795
 20
62.699587036
 30
0.0
  0
VERTEX
  5
150
  8
0
  6
CONTINUOUS
 62
     7
 10
1212.7088304877
 20
64.5475098379
 30
0.0
  0
VERTEX
  5
151
  8
0
  6
CONTINUOUS
 62
     7
 10
1212.9365798354
 20
65.5392268189
 30
0.0
  0
VERTEX
  5
152
  8
0
  6
CONTINUOUS
 62
     7
 10
1213.0811210989
 20
66.6968533285
 30
0.0
  0
VERTEX
  5
153
  8
0
  6
CONTINUOUS
 62
     7
 10
1213.1518122076
 20
68.1601622589
 30
0.0
  0
VERTEX
  5
154
  8
0
  6
CONTINUOUS
 62
     7
 10
1213.1642695784
 20
69.5465960987
 30
0.0
  0
VERTEX
  5
155
  8
0
  6
CONTINUOUS
 62
     7
 10
1213.1702896475
 20
71.3001796492
 30
0.0
  0
VERTEX
  5
156
  8
0
  6
CONTINUOUS
 62
     7
 10
1213.178932321
 20
72.5760617741
 30
0.0
  0
VERTEX
  5
157
  8
0
  6
CONTINUOUS
 62
     7
 10
1213.1929394125
 20
74.5405712612
 30
0.0
  0
VERTEX
  5
158
  8
0
  6
CONTINUOUS
 62
     7
 10
1213.2022973418
 20
76.0251590498
 30
0.0
  0
VERTEX
  5
159
  8
0
  6
CONTINUOUS
 62
     7
 10
1213.2548090338
 20
85.1002195366
 30
0.0
  0
VERTEX
  5
15A
  8
0
  6
CONTINUOUS
 62
     7
 10
1213.3073207259
 20
94.1422739514
 30
0.0
  0
VERTEX
  5
15B
  8
0
  6
CONTINUOUS
 62
     7
 10
1213.3598324179
 20
103.1513371952
 30
0.0
  0
VERTEX
  5
15C
  8
0
  6
CONTINUOUS
 62
     7
 10
1213.4122845053
 20
112.1274018176
 30
0.0
  0
SEQEND
  5
336
  8
0
  6
CONTINUOUS
 62
     7
  0
LINE
  5
9B
  8
0
  6
CONTINUOUS
 62
     7
 10
1213.4122845053
 20
361.2035149224
 30
0.0
 11
1213.4122845053
 21
112.1274018176
 31
0.0
  0
POLYLINE
  5
9C
  8
0
  6
CONTINUOUS
 62
     7
 66
     1
 10
0.0
 20
0.0
 30
0.0
 70
   128
  0
VERTEX
  5
15D
  8
0
  6
CONTINUOUS
 62
     7
 10
1190.9838911414
 20
413.1918409355
 30
0.0
  0
VERTEX
  5
15E
  8
0
  6
CONTINUOUS
 62
     7
 10
1194.4453116774
 20
413.1881305464
 30
0.0
  0
VERTEX
  5
15F
  8
0
  6
CONTINUOUS
 62
     7
 10
1197.9066726088
 20
413.1849864014
 30
0.0
  0
VERTEX
  5
160
  8
0
  6
CONTINUOUS
 62
     7
 10
1201.3656493544
 20
413.1809481867
 30
0.0
  0
VERTEX
  5
161
  8
0
  6
CONTINUOUS
 62
     7
 10
1204.9203511595
 20
413.1320872791
 30
0.0
  0
VERTEX
  5
162
  8
0
  6
CONTINUOUS
 62
     7
 10
1208.2834836363
 20
412.7016821392
 30
0.0
  0
VERTEX
  5
163
  8
0
  6
CONTINUOUS
 62
     7
 10
1210.2576490759
 20
411.9376101978
 30
0.0
  0
VERTEX
  5
164
  8
0
  6
CONTINUOUS
 62
     7
 10
1211.793958795
 20
410.6313148029
 30
0.0
  0
VERTEX
  5
165
  8
0
  6
CONTINUOUS
 62
     7
 10
1212.3200889944
 20
409.784824539
 30
0.0
  0
VERTEX
  5
166
  8
0
  6
CONTINUOUS
 62
     7
 10
1212.7088304877
 20
408.7834069021
 30
0.0
  0
VERTEX
  5
167
  8
0
  6
CONTINUOUS
 62
     7
 10
1212.9804488539
 20
407.5182983168
 30
0.0
  0
VERTEX
  5
168
  8
0
  6
CONTINUOUS
 62
     7
 10
1213.1175991415
 20
406.100065399
 30
0.0
  0
VERTEX
  5
169
  8
0
  6
CONTINUOUS
 62
     7
 10
1213.1595608115
 20
404.6917715557
 30
0.0
  0
VERTEX
  5
16A
  8
0
  6
CONTINUOUS
 62
     7
 10
1213.1654020667
 20
403.2350489386
 30
0.0
  0
VERTEX
  5
16B
  8
0
  6
CONTINUOUS
 62
     7
 10
1213.1710645079
 20
401.8997409828
 30
0.0
  0
VERTEX
  5
16C
  8
0
  6
CONTINUOUS
 62
     7
 10
1213.180780065
 20
400.4955002554
 30
0.0
  0
VERTEX
  5
16D
  8
0
  6
CONTINUOUS
 62
     7
 10
1213.1935950636
 20
398.6939200647
 30
0.0
  0
VERTEX
  5
16E
  8
0
  6
CONTINUOUS
 62
     7
 10
1213.2022973418
 20
397.3057427891
 30
0.0
  0
VERTEX
  5
16F
  8
0
  6
CONTINUOUS
 62
     7
 10
1213.2077213644
 20
396.2849685438
 30
0.0
  0
VERTEX
  5
170
  8
0
  6
CONTINUOUS
 62
     7
 10
1213.218032968
 20
394.2670979984
 30
0.0
  0
VERTEX
  5
171
  8
0
  6
CONTINUOUS
 62
     7
 10
1213.2265564322
 20
392.686844755
 30
0.0
  0
VERTEX
  5
172
  8
0
  6
CONTINUOUS
 62
     7
 10
1213.2355567336
 20
391.2291386612
 30
0.0
  0
VERTEX
  5
173
  8
0
  6
CONTINUOUS
 62
     7
 10
1213.244378221
 20
389.8608991392
 30
0.0
  0
VERTEX
  5
174
  8
0
  6
CONTINUOUS
 62
     7
 10
1213.2530804991
 20
388.4515622147
 30
0.0
  0
VERTEX
  5
175
  8
0
  6
CONTINUOUS
 62
     7
 10
1213.2594581961
 20
387.3676070459
 30
0.0
  0
VERTEX
  5
176
  8
0
  6
CONTINUOUS
 62
     7
 10
1213.2657762885
 20
386.2605401762
 30
0.0
  0
VERTEX
  5
177
  8
0
  6
CONTINUOUS
 62
     7
 10
1213.2704254507
 20
385.4259112366
 30
0.0
  0
VERTEX
  5
178
  8
0
  6
CONTINUOUS
 62
     7
 10
1213.2732864737
 20
384.937853504
 30
0.0
  0
VERTEX
  5
179
  8
0
  6
CONTINUOUS
 62
     7
 10
1213.2782336592
 20
384.0945669897
 30
0.0
  0
VERTEX
  5
17A
  8
0
  6
CONTINUOUS
 62
     7
 10
1213.2853266119
 20
382.8960218914
 30
0.0
  0
VERTEX
  5
17B
  8
0
  6
CONTINUOUS
 62
     7
 10
1213.289677751
 20
382.1635404118
 30
0.0
  0
VERTEX
  5
17C
  8
0
  6
CONTINUOUS
 62
     7
 10
1213.2945653319
 20
381.3422331102
 30
0.0
  0
VERTEX
  5
17D
  8
0
  6
CONTINUOUS
 62
     7
 10
1213.2999893546
 20
380.4321297892
 30
0.0
  0
VERTEX
  5
17E
  8
0
  6
CONTINUOUS
 62
     7
 10
1213.305949819
 20
379.4332006462
 30
0.0
  0
VERTEX
  5
17F
  8
0
  6
CONTINUOUS
 62
     7
 10
1213.4122845053
 20
361.2035149224
 30
0.0
  0
SEQEND
  5
337
  8
0
  6
CONTINUOUS
 62
     7
  0
LINE
  5
9D
  8
0
  6
CONTINUOUS
 62
     7
 10
1150.6404873251
 20
413.2324615009
 30
0.0
 11
1190.9838911414
 21
413.1918260344
 31
0.0
  0
LINE
  5
9E
  8
0
  6
CONTINUOUS
 62
     7
 10
1150.6404873251
 20
413.2324615009
 30
0.0
 11
1150.6471630453
 21
413.3727112301
 31
0.0
  0
LINE
  5
9F
  8
0
  6
CONTINUOUS
 62
     7
 10
1150.6471630453
 20
413.3727112301
 30
0.0
 11
116.633653295
 21
413.3727112301
 31
0.0
  0
LINE
  5
A0
  8
0
  6
CONTINUOUS
 62
     7
 10
116.633653295
 20
413.3727112301
 30
0.0
 11
116.6403290152
 21
413.2324615009
 31
0.0
  0
LINE
  5
A1
  8
0
  6
CONTINUOUS
 62
     7
 10
116.6403290152
 20
413.2324615009
 30
0.0
 11
76.296925199
 21
413.1918260344
 31
0.0
  0
POLYLINE
  5
A2
  8
0
  6
CONTINUOUS
 62
     7
 66
     1
 10
0.0
 20
0.0
 30
0.0
 70
   128
  0
VERTEX
  5
180
  8
0
  6
CONTINUOUS
 62
     7
 10
76.296925199
 20
413.1918409355
 30
0.0
  0
VERTEX
  5
181
  8
0
  6
CONTINUOUS
 62
     7
 10
74.0247365355
 20
413.1892779358
 30
0.0
  0
VERTEX
  5
182
  8
0
  6
CONTINUOUS
 62
     7
 10
72.5356932997
 20
413.1877431162
 30
0.0
  0
VERTEX
  5
183
  8
0
  6
CONTINUOUS
 62
     7
 10
71.4518424391
 20
413.1869980581
 30
0.0
  0
VERTEX
  5
184
  8
0
  6
CONTINUOUS
 62
     7
 10
69.8361989378
 20
413.1858059652
 30
0.0
  0
VERTEX
  5
185
  8
0
  6
CONTINUOUS
 62
     7
 10
68.2204958319
 20
413.1842711456
 30
0.0
  0
VERTEX
  5
186
  8
0
  6
CONTINUOUS
 62
     7
 10
66.5746923804
 20
413.1821551808
 30
0.0
  0
VERTEX
  5
187
  8
0
  6
CONTINUOUS
 62
     7
 10
63.8948079466
 20
413.1710091122
 30
0.0
  0
VERTEX
  5
188
  8
0
  6
CONTINUOUS
 62
     7
 10
61.4640113234
 20
413.0787560232
 30
0.0
  0
VERTEX
  5
189
  8
0
  6
CONTINUOUS
 62
     7
 10
58.997332704
 20
412.7016821392
 30
0.0
  0
VERTEX
  5
18A
  8
0
  6
CONTINUOUS
 62
     7
 10
57.9555627226
 20
412.3743781336
 30
0.0
  0
VERTEX
  5
18B
  8
0
  6
CONTINUOUS
 62
     7
 10
57.0250150084
 20
411.9385936745
 30
0.0
  0
VERTEX
  5
18C
  8
0
  6
CONTINUOUS
 62
     7
 10
55.4868575453
 20
410.6313148029
 30
0.0
  0
VERTEX
  5
18D
  8
0
  6
CONTINUOUS
 62
     7
 10
54.5719858527
 20
408.7834069021
 30
0.0
  0
VERTEX
  5
18E
  8
0
  6
CONTINUOUS
 62
     7
 10
54.344236505
 20
407.7916899212
 30
0.0
  0
VERTEX
  5
18F
  8
0
  6
CONTINUOUS
 62
     7
 10
54.1996952414
 20
406.6340634115
 30
0.0
  0
VERTEX
  5
190
  8
0
  6
CONTINUOUS
 62
     7
 10
54.1290041327
 20
405.17073958
 30
0.0
  0
VERTEX
  5
191
  8
0
  6
CONTINUOUS
 62
     7
 10
54.1165467619
 20
403.7843057402
 30
0.0
  0
VERTEX
  5
192
  8
0
  6
CONTINUOUS
 62
     7
 10
54.1105266928
 20
402.0307221897
 30
0.0
  0
VERTEX
  5
193
  8
0
  6
CONTINUOUS
 62
     7
 10
54.1018840193
 20
400.7548400648
 30
0.0
  0
VERTEX
  5
194
  8
0
  6
CONTINUOUS
 62
     7
 10
54.0878769278
 20
398.7903454788
 30
0.0
  0
VERTEX
  5
195
  8
0
  6
CONTINUOUS
 62
     7
 10
54.0785189986
 20
397.3057427891
 30
0.0
  0
VERTEX
  5
196
  8
0
  6
CONTINUOUS
 62
     7
 10
54.0260073065
 20
388.2313230522
 30
0.0
  0
VERTEX
  5
197
  8
0
  6
CONTINUOUS
 62
     7
 10
53.9734956145
 20
379.1894772537
 30
0.0
  0
VERTEX
  5
198
  8
0
  6
CONTINUOUS
 62
     7
 10
53.9209839224
 20
370.1802053936
 30
0.0
  0
VERTEX
  5
199
  8
0
  6
CONTINUOUS
 62
     7
 10
53.868531835
 20
361.2035149224
 30
0.0
  0
SEQEND
  5
338
  8
0
  6
CONTINUOUS
 62
     7
  0
LINE
  5
A3
  8
0
  6
CONTINUOUS
 62
     7
 10
53.868531835
 20
361.2035149224
 30
0.0
 11
53.868531835
 21
112.1274018176
 31
0.0
  0
POLYLINE
  5
A4
  8
0
  6
CONTINUOUS
 62
     7
 66
     1
 10
0.0
 20
0.0
 30
0.0
 70
   128
  0
VERTEX
  5
19A
  8
0
  6
CONTINUOUS
 62
     7
 10
76.296925199
 20
60.1390758045
 30
0.0
  0
VERTEX
  5
19B
  8
0
  6
CONTINUOUS
 62
     7
 10
72.8355046629
 20
60.1427861937
 30
0.0
  0
VERTEX
  5
19C
  8
0
  6
CONTINUOUS
 62
     7
 10
69.3741437315
 20
60.1459303387
 30
0.0
  0
VERTEX
  5
19D
  8
0
  6
CONTINUOUS
 62
     7
 10
65.9151669859
 20
60.1499685534
 30
0.0
  0
VERTEX
  5
19E
  8
0
  6
CONTINUOUS
 62
     7
 10
62.3604651808
 20
60.1988294609
 30
0.0
  0
VERTEX
  5
19F
  8
0
  6
CONTINUOUS
 62
     7
 10
58.997332704
 20
60.6292346008
 30
0.0
  0
VERTEX
  5
1A0
  8
0
  6
CONTINUOUS
 62
     7
 10
57.0231672644
 20
61.3933065422
 30
0.0
  0
VERTEX
  5
1A1
  8
0
  6
CONTINUOUS
 62
     7
 10
55.4868575453
 20
62.699587036
 30
0.0
  0
VERTEX
  5
1A2
  8
0
  6
CONTINUOUS
 62
     7
 10
54.9607273459
 20
63.5460772999
 30
0.0
  0
VERTEX
  5
1A3
  8
0
  6
CONTINUOUS
 62
     7
 10
54.5719858527
 20
64.5475098379
 30
0.0
  0
VERTEX
  5
1A4
  8
0
  6
CONTINUOUS
 62
     7
 10
54.3003674864
 20
65.8126035221
 30
0.0
  0
VERTEX
  5
1A5
  8
0
  6
CONTINUOUS
 62
     7
 10
54.1632171988
 20
67.2308364399
 30
0.0
  0
VERTEX
  5
1A6
  8
0
  6
CONTINUOUS
 62
     7
 10
54.1212555289
 20
68.6391302832
 30
0.0
  0
VERTEX
  5
1A7
  8
0
  6
CONTINUOUS
 62
     7
 10
54.1154142737
 20
70.0958529003
 30
0.0
  0
VERTEX
  5
1A8
  8
0
  6
CONTINUOUS
 62
     7
 10
54.1097518324
 20
71.4311757572
 30
0.0
  0
VERTEX
  5
1A9
  8
0
  6
CONTINUOUS
 62
     7
 10
54.1000362753
 20
72.8354164847
 30
0.0
  0
VERTEX
  5
1AA
  8
0
  6
CONTINUOUS
 62
     7
 10
54.0872212767
 20
74.6369966753
 30
0.0
  0
VERTEX
  5
1AB
  8
0
  6
CONTINUOUS
 62
     7
 10
54.0785189986
 20
76.0251590498
 30
0.0
  0
VERTEX
  5
1AC
  8
0
  6
CONTINUOUS
 62
     7
 10
54.0730949759
 20
77.0459481962
 30
0.0
  0
VERTEX
  5
1AD
  8
0
  6
CONTINUOUS
 62
     7
 10
54.0627833723
 20
79.0638187416
 30
0.0
  0
VERTEX
  5
1AE
  8
0
  6
CONTINUOUS
 62
     7
 10
54.0542599081
 20
80.6440719851
 30
0.0
  0
VERTEX
  5
1AF
  8
0
  6
CONTINUOUS
 62
     7
 10
54.0452596068
 20
82.1017631777
 30
0.0
  0
VERTEX
  5
1B0
  8
0
  6
CONTINUOUS
 62
     7
 10
54.0364381194
 20
83.470032502
 30
0.0
  0
VERTEX
  5
1B1
  8
0
  6
CONTINUOUS
 62
     7
 10
54.0277358412
 20
84.8793694265
 30
0.0
  0
VERTEX
  5
1B2
  8
0
  6
CONTINUOUS
 62
     7
 10
54.0213581442
 20
85.9633245953
 30
0.0
  0
VERTEX
  5
1B3
  8
0
  6
CONTINUOUS
 62
     7
 10
54.0150400519
 20
87.070391465
 30
0.0
  0
VERTEX
  5
1B4
  8
0
  6
CONTINUOUS
 62
     7
 10
54.0103908896
 20
87.9050055035
 30
0.0
  0
VERTEX
  5
1B5
  8
0
  6
CONTINUOUS
 62
     7
 10
54.0075298666
 20
88.3930483349
 30
0.0
  0
VERTEX
  5
1B6
  8
0
  6
CONTINUOUS
 62
     7
 10
54.0025826811
 20
89.2363497503
 30
0.0
  0
VERTEX
  5
1B7
  8
0
  6
CONTINUOUS
 62
     7
 10
53.9954897284
 20
90.4348948486
 30
0.0
  0
VERTEX
  5
1B8
  8
0
  6
CONTINUOUS
 62
     7
 10
53.9911385893
 20
91.1673763283
 30
0.0
  0
VERTEX
  5
1B9
  8
0
  6
CONTINUOUS
 62
     7
 10
53.9862510085
 20
91.9886836298
 30
0.0
  0
VERTEX
  5
1BA
  8
0
  6
CONTINUOUS
 62
     7
 10
53.9808269858
 20
92.8987869509
 30
0.0
  0
VERTEX
  5
1BB
  8
0
  6
CONTINUOUS
 62
     7
 10
53.9748665213
 20
93.8977160938
 30
0.0
  0
VERTEX
  5
1BC
  8
0
  6
CONTINUOUS
 62
     7
 10
53.868531835
 20
112.1274018176
 30
0.0
  0
SEQEND
  5
339
  8
0
  6
CONTINUOUS
 62
     7
  0
LINE
  5
A5
  8
0
  6
CONTINUOUS
 62
     7
 10
116.6403290152
 20
60.0984552391
 30
0.0
 11
76.296925199
 21
60.1390907057
 31
0.0
  0
LINE
  5
A6
  8
0
  6
CONTINUOUS
 62
     7
 10
116.633653295
 20
59.95820551
 30
0.0
 11
116.6403290152
 21
60.0984552391
 31
0.0
  0
LINE
  5
A7
  8
0
  6
CONTINUOUS
 62
     7
 10
1150.6471630453
 20
59.95820551
 30
0.0
 11
116.633653295
 21
59.95820551
 31
0.0
  0
LINE
  5
A8
  8
0
  6
CONTINUOUS
 62
     7
 10
1150.6404873251
 20
60.0984552391
 30
0.0
 11
1150.6471630453
 21
59.95820551
 31
0.0
  0
POLYLINE
  5
A9
  8
0
  6
CONTINUOUS
 62
     7
 66
     1
 10
0.0
 20
0.0
 30
0.0
 70
   128
  0
VERTEX
  5
1BD
  8
0
  6
CONTINUOUS
 62
     7
 10
117.3399683356
 20
401.1563071497
 30
0.0
  0
VERTEX
  5
1BE
  8
0
  6
CONTINUOUS
 62
     7
 10
108.8629957556
 20
401.0993549116
 30
0.0
  0
VERTEX
  5
1BF
  8
0
  6
CONTINUOUS
 62
     7
 10
100.8942719817
 20
400.7261553295
 30
0.0
  0
VERTEX
  5
1C0
  8
0
  6
CONTINUOUS
 62
     7
 10
97.2132679343
 20
400.314272333
 30
0.0
  0
VERTEX
  5
1C1
  8
0
  6
CONTINUOUS
 62
     7
 10
93.7745567679
 20
399.69121008
 30
0.0
  0
VERTEX
  5
1C2
  8
0
  6
CONTINUOUS
 62
     7
 10
90.6020995497
 20
398.8087186106
 30
0.0
  0
VERTEX
  5
1C3
  8
0
  6
CONTINUOUS
 62
     7
 10
87.7192016959
 20
397.6164767035
 30
0.0
  0
SEQEND
  5
33A
  8
0
  6
CONTINUOUS
 62
     7
  0
POLYLINE
  5
AA
  8
0
  6
CONTINUOUS
 62
     7
 66
     1
 10
0.0
 20
0.0
 30
0.0
 70
   128
  0
VERTEX
  5
1C4
  8
0
  6
CONTINUOUS
 62
     7
 10
1149.9408480048
 20
401.1563071497
 30
0.0
  0
VERTEX
  5
1C5
  8
0
  6
CONTINUOUS
 62
     7
 10
1158.4178205847
 20
401.0993549116
 30
0.0
  0
VERTEX
  5
1C6
  8
0
  6
CONTINUOUS
 62
     7
 10
1166.3865443587
 20
400.7261553295
 30
0.0
  0
VERTEX
  5
1C7
  8
0
  6
CONTINUOUS
 62
     7
 10
1170.0675484061
 20
400.314272333
 30
0.0
  0
VERTEX
  5
1C8
  8
0
  6
CONTINUOUS
 62
     7
 10
1173.5062595724
 20
399.69121008
 30
0.0
  0
VERTEX
  5
1C9
  8
0
  6
CONTINUOUS
 62
     7
 10
1176.6787167906
 20
398.8087186106
 30
0.0
  0
VERTEX
  5
1CA
  8
0
  6
CONTINUOUS
 62
     7
 10
1179.5616146445
 20
397.6164767035
 30
0.0
  0
SEQEND
  5
33B
  8
0
  6
CONTINUOUS
 62
     7
  0
POLYLINE
  5
AB
  8
0
  6
CONTINUOUS
 62
     7
 66
     1
 10
0.0
 20
0.0
 30
0.0
 70
   128
  0
VERTEX
  5
1CB
  8
0
  6
CONTINUOUS
 62
     7
 10
1149.9408480048
 20
72.1746095904
 30
0.0
  0
VERTEX
  5
1CC
  8
0
  6
CONTINUOUS
 62
     7
 10
1158.4178205847
 20
72.2315618284
 30
0.0
  0
VERTEX
  5
1CD
  8
0
  6
CONTINUOUS
 62
     7
 10
1166.3865443587
 20
72.6047614105
 30
0.0
  0
VERTEX
  5
1CE
  8
0
  6
CONTINUOUS
 62
     7
 10
1170.0675484061
 20
73.0166444071
 30
0.0
  0
VERTEX
  5
1CF
  8
0
  6
CONTINUOUS
 62
     7
 10
1173.5062595724
 20
73.6397066601
 30
0.0
  0
VERTEX
  5
1D0
  8
0
  6
CONTINUOUS
 62
     7
 10
1176.6787167906
 20
74.5221981295
 30
0.0
  0
VERTEX
  5
1D1
  8
0
  6
CONTINUOUS
 62
     7
 10
1179.5616146445
 20
75.7144400366
 30
0.0
  0
SEQEND
  5
33C
  8
0
  6
CONTINUOUS
 62
     7
  0
POLYLINE
  5
AC
  8
0
  6
CONTINUOUS
 62
     7
 66
     1
 10
0.0
 20
0.0
 30
0.0
 70
   128
  0
VERTEX
  5
1D2
  8
0
  6
CONTINUOUS
 62
     7
 10
117.3399683356
 20
72.1746095904
 30
0.0
  0
VERTEX
  5
1D3
  8
0
  6
CONTINUOUS
 62
     7
 10
108.8629957556
 20
72.2315618284
 30
0.0
  0
VERTEX
  5
1D4
  8
0
  6
CONTINUOUS
 62
     7
 10
100.8942719817
 20
72.6047614105
 30
0.0
  0
VERTEX
  5
1D5
  8
0
  6
CONTINUOUS
 62
     7
 10
97.2132679343
 20
73.0166444071
 30
0.0
  0
VERTEX
  5
1D6
  8
0
  6
CONTINUOUS
 62
     7
 10
93.7745567679
 20
73.6397066601
 30
0.0
  0
VERTEX
  5
1D7
  8
0
  6
CONTINUOUS
 62
     7
 10
90.6020995497
 20
74.5221981295
 30
0.0
  0
VERTEX
  5
1D8
  8
0
  6
CONTINUOUS
 62
     7
 10
87.7192016959
 20
75.7144400366
 30
0.0
  0
SEQEND
  5
33D
  8
0
  6
CONTINUOUS
 62
     7
  0
POLYLINE
  5
AD
  8
0
  6
CONTINUOUS
 62
     7
 66
     1
 10
0.0
 20
0.0
 30
0.0
 70
   128
  0
VERTEX
  5
1D9
  8
0
  6
CONTINUOUS
 62
     7
 10
87.7192016959
 20
397.6164618023
 30
0.0
  0
VERTEX
  5
1DA
  8
0
  6
CONTINUOUS
 62
     7
 10
85.5659242987
 20
396.3573285826
 30
0.0
  0
VERTEX
  5
1DB
  8
0
  6
CONTINUOUS
 62
     7
 10
83.6449262022
 20
394.8296764382
 30
0.0
  0
VERTEX
  5
1DC
  8
0
  6
CONTINUOUS
 62
     7
 10
81.9687243819
 20
393.0194982775
 30
0.0
  0
VERTEX
  5
1DD
  8
0
  6
CONTINUOUS
 62
     7
 10
80.5439349532
 20
390.922115136
 30
0.0
  0
VERTEX
  5
1DE
  8
0
  6
CONTINUOUS
 62
     7
 10
79.0337320685
 20
387.6952537783
 30
0.0
  0
VERTEX
  5
1DF
  8
0
  6
CONTINUOUS
 62
     7
 10
77.9418941855
 20
384.0217003115
 30
0.0
  0
VERTEX
  5
1E0
  8
0
  6
CONTINUOUS
 62
     7
 10
77.2148367285
 20
379.974798251
 30
0.0
  0
VERTEX
  5
1E1
  8
0
  6
CONTINUOUS
 62
     7
 10
76.6474005103
 20
373.3952352293
 30
0.0
  0
VERTEX
  5
1E2
  8
0
  6
CONTINUOUS
 62
     7
 10
76.4687653899
 20
366.4649584778
 30
0.0
  0
VERTEX
  5
1E3
  8
0
  6
CONTINUOUS
 62
     7
 10
76.4461752295
 20
359.4210603722
 30
0.0
  0
VERTEX
  5
1E4
  8
0
  6
CONTINUOUS
 62
     7
 10
76.440214765
 20
352.3897910007
 30
0.0
  0
SEQEND
  5
33E
  8
0
  6
CONTINUOUS
 62
     7
  0
POLYLINE
  5
AE
  8
0
  6
CONTINUOUS
 62
     7
 66
     1
 10
0.0
 20
0.0
 30
0.0
 70
   128
  0
VERTEX
  5
1E5
  8
0
  6
CONTINUOUS
 62
     7
 10
1179.5616146445
 20
75.7144549378
 30
0.0
  0
VERTEX
  5
1E6
  8
0
  6
CONTINUOUS
 62
     7
 10
1181.7148920416
 20
76.9735881575
 30
0.0
  0
VERTEX
  5
1E7
  8
0
  6
CONTINUOUS
 62
     7
 10
1183.6358901381
 20
78.5012403019
 30
0.0
  0
VERTEX
  5
1E8
  8
0
  6
CONTINUOUS
 62
     7
 10
1185.3120919585
 20
80.3114184626
 30
0.0
  0
VERTEX
  5
1E9
  8
0
  6
CONTINUOUS
 62
     7
 10
1186.7368813872
 20
82.4088016041
 30
0.0
  0
VERTEX
  5
1EA
  8
0
  6
CONTINUOUS
 62
     7
 10
1188.2470842719
 20
85.6356629618
 30
0.0
  0
VERTEX
  5
1EB
  8
0
  6
CONTINUOUS
 62
     7
 10
1189.3389221548
 20
89.3092164286
 30
0.0
  0
VERTEX
  5
1EC
  8
0
  6
CONTINUOUS
 62
     7
 10
1190.0659796118
 20
93.3561184891
 30
0.0
  0
VERTEX
  5
1ED
  8
0
  6
CONTINUOUS
 62
     7
 10
1190.6334158301
 20
99.9356815107
 30
0.0
  0
VERTEX
  5
1EE
  8
0
  6
CONTINUOUS
 62
     7
 10
1190.8120509505
 20
106.8659582623
 30
0.0
  0
VERTEX
  5
1EF
  8
0
  6
CONTINUOUS
 62
     7
 10
1190.8346411108
 20
113.9098563679
 30
0.0
  0
VERTEX
  5
1F0
  8
0
  6
CONTINUOUS
 62
     7
 10
1190.8406015753
 20
120.9411257394
 30
0.0
  0
SEQEND
  5
33F
  8
0
  6
CONTINUOUS
 62
     7
  0
POLYLINE
  5
AF
  8
0
  6
CONTINUOUS
 62
     7
 66
     1
 10
0.0
 20
0.0
 30
0.0
 70
   128
  0
VERTEX
  5
1F1
  8
0
  6
CONTINUOUS
 62
     7
 10
1179.5616146445
 20
397.6164618023
 30
0.0
  0
VERTEX
  5
1F2
  8
0
  6
CONTINUOUS
 62
     7
 10
1181.7148920416
 20
396.3573285826
 30
0.0
  0
VERTEX
  5
1F3
  8
0
  6
CONTINUOUS
 62
     7
 10
1183.6358901381
 20
394.8296764382
 30
0.0
  0
VERTEX
  5
1F4
  8
0
  6
CONTINUOUS
 62
     7
 10
1185.3120919585
 20
393.0194982775
 30
0.0
  0
VERTEX
  5
1F5
  8
0
  6
CONTINUOUS
 62
     7
 10
1186.7368813872
 20
390.922115136
 30
0.0
  0
VERTEX
  5
1F6
  8
0
  6
CONTINUOUS
 62
     7
 10
1188.2470842719
 20
387.6952537783
 30
0.0
  0
VERTEX
  5
1F7
  8
0
  6
CONTINUOUS
 62
     7
 10
1189.3389221548
 20
384.0217003115
 30
0.0
  0
VERTEX
  5
1F8
  8
0
  6
CONTINUOUS
 62
     7
 10
1190.0659796118
 20
379.974798251
 30
0.0
  0
VERTEX
  5
1F9
  8
0
  6
CONTINUOUS
 62
     7
 10
1190.6334158301
 20
373.3952352293
 30
0.0
  0
VERTEX
  5
1FA
  8
0
  6
CONTINUOUS
 62
     7
 10
1190.8120509505
 20
366.4649584778
 30
0.0
  0
VERTEX
  5
1FB
  8
0
  6
CONTINUOUS
 62
     7
 10
1190.8346411108
 20
359.4210603722
 30
0.0
  0
VERTEX
  5
1FC
  8
0
  6
CONTINUOUS
 62
     7
 10
1190.8406015753
 20
352.3897910007
 30
0.0
  0
SEQEND
  5
340
  8
0
  6
CONTINUOUS
 62
     7
  0
POLYLINE
  5
B0
  8
0
  6
CONTINUOUS
 62
     7
 66
     1
 10
0.0
 20
0.0
 30
0.0
 70
   128
  0
VERTEX
  5
1FD
  8
0
  6
CONTINUOUS
 62
     7
 10
87.7192016959
 20
75.7144549378
 30
0.0
  0
VERTEX
  5
1FE
  8
0
  6
CONTINUOUS
 62
     7
 10
85.5659242987
 20
76.9735881575
 30
0.0
  0
VERTEX
  5
1FF
  8
0
  6
CONTINUOUS
 62
     7
 10
83.6449262022
 20
78.5012403019
 30
0.0
  0
VERTEX
  5
200
  8
0
  6
CONTINUOUS
 62
     7
 10
81.9687243819
 20
80.3114184626
 30
0.0
  0
VERTEX
  5
201
  8
0
  6
CONTINUOUS
 62
     7
 10
80.5439349532
 20
82.4088016041
 30
0.0
  0
VERTEX
  5
202
  8
0
  6
CONTINUOUS
 62
     7
 10
79.0337320685
 20
85.6356629618
 30
0.0
  0
VERTEX
  5
203
  8
0
  6
CONTINUOUS
 62
     7
 10
77.9418941855
 20
89.3092164286
 30
0.0
  0
VERTEX
  5
204
  8
0
  6
CONTINUOUS
 62
     7
 10
77.2148367285
 20
93.3561184891
 30
0.0
  0
VERTEX
  5
205
  8
0
  6
CONTINUOUS
 62
     7
 10
76.6474005103
 20
99.9356815107
 30
0.0
  0
VERTEX
  5
206
  8
0
  6
CONTINUOUS
 62
     7
 10
76.4687653899
 20
106.8659582623
 30
0.0
  0
VERTEX
  5
207
  8
0
  6
CONTINUOUS
 62
     7
 10
76.4461752295
 20
113.9098563679
 30
0.0
  0
VERTEX
  5
208
  8
0
  6
CONTINUOUS
 62
     7
 10
76.440214765
 20
120.9411257394
 30
0.0
  0
SEQEND
  5
341
  8
0
  6
CONTINUOUS
 62
     7
  0
POLYLINE
  5
B1
  8
0
  6
CONTINUOUS
 62
     7
 66
     1
 10
0.0
 20
0.0
 30
0.0
 70
   128
  0
VERTEX
  5
209
  8
0
  6
CONTINUOUS
 62
     7
 10
1149.9408480048
 20
401.1565753706
 30
0.0
  0
VERTEX
  5
20A
  8
0
  6
CONTINUOUS
 62
     7
 10
633.6404072564
 20
401.3241836317
 30
0.0
  0
VERTEX
  5
20B
  8
0
  6
CONTINUOUS
 62
     7
 10
117.3399683356
 20
401.1565753706
 30
0.0
  0
SEQEND
  5
342
  8
0
  6
CONTINUOUS
 62
     7
  0
POLYLINE
  5
B2
  8
0
  6
CONTINUOUS
 62
     7
 66
     1
 10
0.0
 20
0.0
 30
0.0
 70
   128
  0
VERTEX
  5
20C
  8
0
  6
CONTINUOUS
 62
     7
 10
1149.9408480048
 20
72.1743413694
 30
0.0
  0
VERTEX
  5
20D
  8
0
  6
CONTINUOUS
 62
     7
 10
633.6404072564
 20
72.0067331083
 30
0.0
  0
VERTEX
  5
20E
  8
0
  6
CONTINUOUS
 62
     7
 10
117.3399683356
 20
72.1743413694
 30
0.0
  0
SEQEND
  5
343
  8
0
  6
CONTINUOUS
 62
     7
  0
LINE
  5
B3
  8
0
  6
CONTINUOUS
 62
     7
 10
76.440214765
 20
352.3897910007
 30
0.0
 11
76.440214765
 21
120.9411257394
 31
0.0
  0
LINE
  5
B4
  8
0
  6
CONTINUOUS
 62
     7
 10
1190.8406015753
 20
352.3897910007
 30
0.0
 11
1190.8406015753
 21
120.9411257394
 31
0.0
  0
LINE
  5
B5
  8
0
  6
CONTINUOUS
 62
     7
 10
36.6404053091
 20
47.1654543169
 30
0.0
 11
36.6404053091
 21
44.1654631384
 31
0.0
  0
LINE
  5
B6
  8
0
  6
CONTINUOUS
 62
     7
 10
33.6403843283
 20
47.1654543169
 30
0.0
 11
36.6404053091
 21
47.1654543169
 31
0.0
  0
LINE
  5
B7
  8
0
  6
CONTINUOUS
 62
     7
 10
1230.6404110312
 20
501.1654505022
 30
0.0
 11
1230.6404110312
 21
504.1654714831
 31
0.0
  0
LINE
  5
B8
  8
0
  6
CONTINUOUS
 62
     7
 10
1233.640432012
 20
501.1654505022
 30
0.0
 11
1230.6404110312
 21
501.1654505022
 31
0.0
  0
LINE
  5
B9
  8
0
  6
CONTINUOUS
 62
     7
 10
1230.6404110312
 20
44.1654631384
 30
0.0
 11
1230.6404110312
 21
47.1654543169
 31
0.0
  0
LINE
  5
BA
  8
0
  6
CONTINUOUS
 62
     7
 10
36.6404053091
 20
501.1654505022
 30
0.0
 11
33.6403843283
 21
501.1654505022
 31
0.0
  0
LINE
  5
BB
  8
0
  6
CONTINUOUS
 62
     7
 10
36.6404053091
 20
504.1654714831
 30
0.0
 11
36.6404053091
 21
501.1654505022
 31
0.0
  0
LINE
  5
BC
  8
0
  6
CONTINUOUS
 62
     7
 10
1230.6404110312
 20
47.1654543169
 30
0.0
 11
1233.640432012
 21
47.1654543169
 31
0.0
  0
POLYLINE
  5
BD
  8
0
  6
CONTINUOUS
 62
     7
 66
     1
 10
0.0
 20
0.0
 30
0.0
 70
   128
  0
VERTEX
  5
20F
  8
0
  6
CONTINUOUS
 62
     7
 10
1078.6750909209
 20
314.6848091372
 30
0.0
  0
VERTEX
  5
210
  8
0
  6
CONTINUOUS
 62
     7
 10
1083.5263129591
 20
314.6291980036
 30
0.0
  0
VERTEX
  5
211
  8
0
  6
CONTINUOUS
 62
     7
 10
1088.3499976515
 20
314.4291126617
 30
0.0
  0
VERTEX
  5
212
  8
0
  6
CONTINUOUS
 62
     7
 10
1093.0293496966
 20
313.8231122382
 30
0.0
  0
VERTEX
  5
213
  8
0
  6
CONTINUOUS
 62
     7
 10
1096.3166352629
 20
312.9438319691
 30
0.0
  0
VERTEX
  5
214
  8
0
  6
CONTINUOUS
 62
     7
 10
1099.2845293402
 20
311.6256827005
 30
0.0
  0
VERTEX
  5
215
  8
0
  6
CONTINUOUS
 62
     7
 10
1101.8297370791
 20
309.8683366068
 30
0.0
  0
VERTEX
  5
216
  8
0
  6
CONTINUOUS
 62
     7
 10
1103.8971837878
 20
307.7259817608
 30
0.0
  0
VERTEX
  5
217
  8
0
  6
CONTINUOUS
 62
     7
 10
1105.4857667803
 20
305.2827501186
 30
0.0
  0
VERTEX
  5
218
  8
0
  6
CONTINUOUS
 62
     7
 10
1106.6385802149
 20
302.62243836
 30
0.0
  0
VERTEX
  5
219
  8
0
  6
CONTINUOUS
 62
     7
 10
1107.4220832705
 20
299.8150148876
 30
0.0
  0
VERTEX
  5
21A
  8
0
  6
CONTINUOUS
 62
     7
 10
1107.9119440436
 20
296.9145746418
 30
0.0
  0
VERTEX
  5
21B
  8
0
  6
CONTINUOUS
 62
     7
 10
1108.3180900931
 20
290.9748935588
 30
0.0
  0
VERTEX
  5
21C
  8
0
  6
CONTINUOUS
 62
     7
 10
1108.4069010138
 20
284.9760809429
 30
0.0
  0
SEQEND
  5
344
  8
0
  6
CONTINUOUS
 62
     7
  0
POLYLINE
  5
BE
  8
0
  6
CONTINUOUS
 62
     7
 66
     1
 10
0.0
 20
0.0
 30
0.0
 70
   128
  0
VERTEX
  5
21D
  8
0
  6
CONTINUOUS
 62
     7
 10
158.8739153265
 20
284.9760809429
 30
0.0
  0
VERTEX
  5
21E
  8
0
  6
CONTINUOUS
 62
     7
 10
158.9627262473
 20
290.9748600312
 30
0.0
  0
VERTEX
  5
21F
  8
0
  6
CONTINUOUS
 62
     7
 10
159.3688424944
 20
296.9145075865
 30
0.0
  0
VERTEX
  5
220
  8
0
  6
CONTINUOUS
 62
     7
 10
159.8587330698
 20
299.8149329312
 30
0.0
  0
VERTEX
  5
221
  8
0
  6
CONTINUOUS
 62
     7
 10
160.6422063231
 20
302.6223489531
 30
0.0
  0
VERTEX
  5
222
  8
0
  6
CONTINUOUS
 62
     7
 10
161.7950197577
 20
305.2826458104
 30
0.0
  0
VERTEX
  5
223
  8
0
  6
CONTINUOUS
 62
     7
 10
163.3835729479
 20
307.7258774527
 30
0.0
  0
VERTEX
  5
224
  8
0
  6
CONTINUOUS
 62
     7
 10
165.450960052
 20
309.8682322987
 30
0.0
  0
VERTEX
  5
225
  8
0
  6
CONTINUOUS
 62
     7
 10
167.9961081862
 20
311.6255932935
 30
0.0
  0
VERTEX
  5
226
  8
0
  6
CONTINUOUS
 62
     7
 10
170.9640022635
 20
312.9437649139
 30
0.0
  0
VERTEX
  5
227
  8
0
  6
CONTINUOUS
 62
     7
 10
174.2512580275
 20
313.8230675347
 30
0.0
  0
VERTEX
  5
228
  8
0
  6
CONTINUOUS
 62
     7
 10
178.9305206656
 20
314.4290903099
 30
0.0
  0
VERTEX
  5
229
  8
0
  6
CONTINUOUS
 62
     7
 10
183.754205358
 20
314.629190553
 30
0.0
  0
VERTEX
  5
22A
  8
0
  6
CONTINUOUS
 62
     7
 10
188.6053677916
 20
314.6848091372
 30
0.0
  0
SEQEND
  5
345
  8
0
  6
CONTINUOUS
 62
     7
  0
POLYLINE
  5
BF
  8
0
  6
CONTINUOUS
 62
     7
 66
     1
 10
0.0
 20
0.0
 30
0.0
 70
   128
  0
VERTEX
  5
22B
  8
0
  6
CONTINUOUS
 62
     7
 10
1108.4069010138
 20
284.9760809429
 30
0.0
  0
VERTEX
  5
22C
  8
0
  6
CONTINUOUS
 62
     7
 10
1108.6403724074
 20
236.6654623191
 30
0.0
  0
VERTEX
  5
22D
  8
0
  6
CONTINUOUS
 62
     7
 10
1108.4069308161
 20
188.3549289294
 30
0.0
  0
SEQEND
  5
346
  8
0
  6
CONTINUOUS
 62
     7
  0
POLYLINE
  5
C0
  8
0
  6
CONTINUOUS
 62
     7
 66
     1
 10
0.0
 20
0.0
 30
0.0
 70
   128
  0
VERTEX
  5
22E
  8
0
  6
CONTINUOUS
 62
     7
 10
158.8738855242
 20
188.3549289294
 30
0.0
  0
VERTEX
  5
22F
  8
0
  6
CONTINUOUS
 62
     7
 10
158.640443933
 20
236.6654623191
 30
0.0
  0
VERTEX
  5
230
  8
0
  6
CONTINUOUS
 62
     7
 10
158.8739153265
 20
284.9760809429
 30
0.0
  0
SEQEND
  5
347
  8
0
  6
CONTINUOUS
 62
     7
  0
POLYLINE
  5
C1
  8
0
  6
CONTINUOUS
 62
     7
 66
     1
 10
0.0
 20
0.0
 30
0.0
 70
   128
  0
VERTEX
  5
231
  8
0
  6
CONTINUOUS
 62
     7
 10
188.6056658148
 20
158.646159757
 30
0.0
  0
VERTEX
  5
232
  8
0
  6
CONTINUOUS
 62
     7
 10
183.7543543696
 20
158.70176344
 30
0.0
  0
VERTEX
  5
233
  8
0
  6
CONTINUOUS
 62
     7
 10
178.9309975027
 20
158.9018189796
 30
0.0
  0
VERTEX
  5
234
  8
0
  6
CONTINUOUS
 62
     7
 10
174.251585853
 20
159.5077896007
 30
0.0
  0
VERTEX
  5
235
  8
0
  6
CONTINUOUS
 62
     7
 10
170.9640618681
 20
160.387136925
 30
0.0
  0
VERTEX
  5
236
  8
0
  6
CONTINUOUS
 62
     7
 10
167.9963764071
 20
161.705174435
 30
0.0
  0
VERTEX
  5
237
  8
0
  6
CONTINUOUS
 62
     7
 10
165.4510196566
 20
163.4626248367
 30
0.0
  0
VERTEX
  5
238
  8
0
  6
CONTINUOUS
 62
     7
 10
163.3836623549
 20
165.6048902758
 30
0.0
  0
VERTEX
  5
239
  8
0
  6
CONTINUOUS
 62
     7
 10
161.7950793623
 20
168.0481442698
 30
0.0
  0
VERTEX
  5
23A
  8
0
  6
CONTINUOUS
 62
     7
 10
160.6422361254
 20
170.7085454352
 30
0.0
  0
VERTEX
  5
23B
  8
0
  6
CONTINUOUS
 62
     7
 10
159.8587926745
 20
173.5157081373
 30
0.0
  0
VERTEX
  5
23C
  8
0
  6
CONTINUOUS
 62
     7
 10
159.3688126921
 20
176.4165171869
 30
0.0
  0
VERTEX
  5
23D
  8
0
  6
CONTINUOUS
 62
     7
 10
158.9627262473
 20
182.3560306318
 30
0.0
  0
VERTEX
  5
23E
  8
0
  6
CONTINUOUS
 62
     7
 10
158.8738855242
 20
188.3549289294
 30
0.0
  0
SEQEND
  5
348
  8
0
  6
CONTINUOUS
 62
     7
  0
POLYLINE
  5
C2
  8
0
  6
CONTINUOUS
 62
     7
 66
     1
 10
0.0
 20
0.0
 30
0.0
 70
   128
  0
VERTEX
  5
23F
  8
0
  6
CONTINUOUS
 62
     7
 10
1108.4069308161
 20
188.3549289294
 30
0.0
  0
VERTEX
  5
240
  8
0
  6
CONTINUOUS
 62
     7
 10
1108.3180900931
 20
182.3560306318
 30
0.0
  0
VERTEX
  5
241
  8
0
  6
CONTINUOUS
 62
     7
 10
1107.9120036482
 20
176.4165171869
 30
0.0
  0
VERTEX
  5
242
  8
0
  6
CONTINUOUS
 62
     7
 10
1107.4220236658
 20
173.5157081373
 30
0.0
  0
VERTEX
  5
243
  8
0
  6
CONTINUOUS
 62
     7
 10
1106.6385802149
 20
170.7085454352
 30
0.0
  0
VERTEX
  5
244
  8
0
  6
CONTINUOUS
 62
     7
 10
1105.485736978
 20
168.0481442698
 30
0.0
  0
VERTEX
  5
245
  8
0
  6
CONTINUOUS
 62
     7
 10
1103.8971539854
 20
165.6048902758
 30
0.0
  0
VERTEX
  5
246
  8
0
  6
CONTINUOUS
 62
     7
 10
1101.8297966837
 20
163.4626248367
 30
0.0
  0
VERTEX
  5
247
  8
0
  6
CONTINUOUS
 62
     7
 10
1099.2844399332
 20
161.705174435
 30
0.0
  0
VERTEX
  5
248
  8
0
  6
CONTINUOUS
 62
     7
 10
1096.3167544722
 20
160.387136925
 30
0.0
  0
VERTEX
  5
249
  8
0
  6
CONTINUOUS
 62
     7
 10
1093.0292304873
 20
159.5077896007
 30
0.0
  0
VERTEX
  5
24A
  8
0
  6
CONTINUOUS
 62
     7
 10
1088.3498188376
 20
158.9018189796
 30
0.0
  0
VERTEX
  5
24B
  8
0
  6
CONTINUOUS
 62
     7
 10
1083.5264619707
 20
158.70176344
 30
0.0
  0
VERTEX
  5
24C
  8
0
  6
CONTINUOUS
 62
     7
 10
1078.6751505255
 20
158.646159757
 30
0.0
  0
SEQEND
  5
349
  8
0
  6
CONTINUOUS
 62
     7
  0
POLYLINE
  5
C3
  8
0
  6
CONTINUOUS
 62
     7
 66
     1
 10
0.0
 20
0.0
 30
0.0
 70
   128
  0
VERTEX
  5
24D
  8
0
  6
CONTINUOUS
 62
     7
 10
188.6057254195
 20
314.6848091372
 30
0.0
  0
VERTEX
  5
24E
  8
0
  6
CONTINUOUS
 62
     7
 10
225.01739825
 20
314.9957069643
 30
0.0
  0
VERTEX
  5
24F
  8
0
  6
CONTINUOUS
 62
     7
 10
260.9494325041
 20
315.2764448412
 30
0.0
  0
VERTEX
  5
250
  8
0
  6
CONTINUOUS
 62
     7
 10
296.3428195834
 20
315.5277529247
 30
0.0
  0
VERTEX
  5
251
  8
0
  6
CONTINUOUS
 62
     7
 10
331.1210271239
 20
315.7502719648
 30
0.0
  0
VERTEX
  5
252
  8
0
  6
CONTINUOUS
 62
     7
 10
365.1884492754
 20
315.9447842725
 30
0.0
  0
VERTEX
  5
253
  8
0
  6
CONTINUOUS
 62
     7
 10
398.4041210532
 20
316.1120945104
 30
0.0
  0
VERTEX
  5
254
  8
0
  6
CONTINUOUS
 62
     7
 10
430.6560155272
 20
316.2534320243
 30
0.0
  0
VERTEX
  5
255
  8
0
  6
CONTINUOUS
 62
     7
 10
461.8094709038
 20
316.3701975234
 30
0.0
  0
VERTEX
  5
256
  8
0
  6
CONTINUOUS
 62
     7
 10
481.9046255469
 20
316.4352187403
 30
0.0
  0
VERTEX
  5
257
  8
0
  6
CONTINUOUS
 62
     7
 10
501.3048347353
 20
316.490330685
 30
0.0
  0
VERTEX
  5
258
  8
0
  6
CONTINUOUS
 62
     7
 10
519.911348474
 20
316.5361145027
 30
0.0
  0
VERTEX
  5
259
  8
0
  6
CONTINUOUS
 62
     7
 10
537.6360412955
 20
316.5732928999
 30
0.0
  0
VERTEX
  5
25A
  8
0
  6
CONTINUOUS
 62
     7
 10
554.4176470756
 20
316.6026928909
 30
0.0
  0
VERTEX
  5
25B
  8
0
  6
CONTINUOUS
 62
     7
 10
570.1792385697
 20
316.6251861938
 30
0.0
  0
VERTEX
  5
25C
  8
0
  6
CONTINUOUS
 62
     7
 10
580.1406126737
 20
316.6368314512
 30
0.0
  0
VERTEX
  5
25D
  8
0
  6
CONTINUOUS
 62
     7
 10
589.5304527401
 20
316.646003116
 30
0.0
  0
VERTEX
  5
25E
  8
0
  6
CONTINUOUS
 62
     7
 10
598.2748937129
 20
316.6529545076
 30
0.0
  0
VERTEX
  5
25F
  8
0
  6
CONTINUOUS
 62
     7
 10
606.2842026621
 20
316.657976199
 30
0.0
  0
VERTEX
  5
260
  8
0
  6
CONTINUOUS
 62
     7
 10
613.4696580737
 20
316.6613885649
 30
0.0
  0
VERTEX
  5
261
  8
0
  6
CONTINUOUS
 62
     7
 10
619.6635464474
 20
316.6635045298
 30
0.0
  0
VERTEX
  5
262
  8
0
  6
CONTINUOUS
 62
     7
 10
624.9875115498
 20
316.6647115238
 30
0.0
  0
VERTEX
  5
263
  8
0
  6
CONTINUOUS
 62
     7
 10
629.5544054627
 20
316.6652926691
 30
0.0
  0
VERTEX
  5
264
  8
0
  6
CONTINUOUS
 62
     7
 10
633.6404081702
 20
316.6654565819
 30
0.0
  0
SEQEND
  5
34A
  8
0
  6
CONTINUOUS
 62
     7
  0
POLYLINE
  5
C4
  8
0
  6
CONTINUOUS
 62
     7
 66
     1
 10
0.0
 20
0.0
 30
0.0
 70
   128
  0
VERTEX
  5
265
  8
0
  6
CONTINUOUS
 62
     7
 10
633.6404081702
 20
316.6654565819
 30
0.0
  0
VERTEX
  5
266
  8
0
  6
CONTINUOUS
 62
     7
 10
637.8040701419
 20
316.6652852185
 30
0.0
  0
VERTEX
  5
267
  8
0
  6
CONTINUOUS
 62
     7
 10
642.4724735587
 20
316.6646742709
 30
0.0
  0
VERTEX
  5
268
  8
0
  6
CONTINUOUS
 62
     7
 10
647.9324108257
 20
316.6634151228
 30
0.0
  0
VERTEX
  5
269
  8
0
  6
CONTINUOUS
 62
     7
 10
654.2955726653
 20
316.6611948498
 30
0.0
  0
VERTEX
  5
26A
  8
0
  6
CONTINUOUS
 62
     7
 10
661.5423072397
 20
316.6576707252
 30
0.0
  0
VERTEX
  5
26B
  8
0
  6
CONTINUOUS
 62
     7
 10
669.4566082477
 20
316.6526341327
 30
0.0
  0
VERTEX
  5
26C
  8
0
  6
CONTINUOUS
 62
     7
 10
678.0750859796
 20
316.6457125433
 30
0.0
  0
VERTEX
  5
26D
  8
0
  6
CONTINUOUS
 62
     7
 10
687.3132732033
 20
316.6366526373
 30
0.0
  0
VERTEX
  5
26E
  8
0
  6
CONTINUOUS
 62
     7
 10
697.1015777707
 20
316.6251861938
 30
0.0
  0
VERTEX
  5
26F
  8
0
  6
CONTINUOUS
 62
     7
 10
712.8631692647
 20
316.6026928909
 30
0.0
  0
VERTEX
  5
270
  8
0
  6
CONTINUOUS
 62
     7
 10
729.6447750449
 20
316.5732928999
 30
0.0
  0
VERTEX
  5
271
  8
0
  6
CONTINUOUS
 62
     7
 10
747.3694678664
 20
316.5361145027
 30
0.0
  0
VERTEX
  5
272
  8
0
  6
CONTINUOUS
 62
     7
 10
765.975981605
 20
316.490330685
 30
0.0
  0
VERTEX
  5
273
  8
0
  6
CONTINUOUS
 62
     7
 10
785.3761907935
 20
316.4352187403
 30
0.0
  0
VERTEX
  5
274
  8
0
  6
CONTINUOUS
 62
     7
 10
805.4713454365
 20
316.3701975234
 30
0.0
  0
VERTEX
  5
275
  8
0
  6
CONTINUOUS
 62
     7
 10
836.6248008131
 20
316.2534320243
 30
0.0
  0
VERTEX
  5
276
  8
0
  6
CONTINUOUS
 62
     7
 10
868.8766952872
 20
316.1120945104
 30
0.0
  0
VERTEX
  5
277
  8
0
  6
CONTINUOUS
 62
     7
 10
902.0923670649
 20
315.9447842725
 30
0.0
  0
VERTEX
  5
278
  8
0
  6
CONTINUOUS
 62
     7
 10
936.1597892165
 20
315.7502719648
 30
0.0
  0
VERTEX
  5
279
  8
0
  6
CONTINUOUS
 62
     7
 10
970.937996757
 20
315.5277529247
 30
0.0
  0
VERTEX
  5
27A
  8
0
  6
CONTINUOUS
 62
     7
 10
1006.3313838362
 20
315.2764448412
 30
0.0
  0
VERTEX
  5
27B
  8
0
  6
CONTINUOUS
 62
     7
 10
1042.2634180903
 20
314.9957069643
 30
0.0
  0
VERTEX
  5
27C
  8
0
  6
CONTINUOUS
 62
     7
 10
1078.6750909209
 20
314.6848091372
 30
0.0
  0
SEQEND
  5
34B
  8
0
  6
CONTINUOUS
 62
     7
  0
POLYLINE
  5
C5
  8
0
  6
CONTINUOUS
 62
     7
 66
     1
 10
0.0
 20
0.0
 30
0.0
 70
   128
  0
VERTEX
  5
27D
  8
0
  6
CONTINUOUS
 62
     7
 10
1078.6751505255
 20
158.646159757
 30
0.0
  0
VERTEX
  5
27E
  8
0
  6
CONTINUOUS
 62
     7
 10
1042.2633584856
 20
158.3352023252
 30
0.0
  0
VERTEX
  5
27F
  8
0
  6
CONTINUOUS
 62
     7
 10
1006.3313838362
 20
158.0544718989
 30
0.0
  0
VERTEX
  5
280
  8
0
  6
CONTINUOUS
 62
     7
 10
970.9381755709
 20
157.8031638153
 30
0.0
  0
VERTEX
  5
281
  8
0
  6
CONTINUOUS
 62
     7
 10
936.1594315886
 20
157.5806447752
 30
0.0
  0
VERTEX
  5
282
  8
0
  6
CONTINUOUS
 62
     7
 10
902.0928140997
 20
157.3861324676
 30
0.0
  0
VERTEX
  5
283
  8
0
  6
CONTINUOUS
 62
     7
 10
868.8749518513
 20
157.2188147791
 30
0.0
  0
VERTEX
  5
284
  8
0
  6
CONTINUOUS
 62
     7
 10
836.6239812493
 20
157.0774847158
 30
0.0
  0
VERTEX
  5
285
  8
0
  6
CONTINUOUS
 62
     7
 10
805.4710027098
 20
156.9607192166
 30
0.0
  0
VERTEX
  5
286
  8
0
  6
CONTINUOUS
 62
     7
 10
785.3762354969
 20
156.8956979998
 30
0.0
  0
VERTEX
  5
287
  8
0
  6
CONTINUOUS
 62
     7
 10
765.9759070992
 20
156.8405860551
 30
0.0
  0
VERTEX
  5
288
  8
0
  6
CONTINUOUS
 62
     7
 10
747.3695200204
 20
156.7948022373
 30
0.0
  0
VERTEX
  5
289
  8
0
  6
CONTINUOUS
 62
     7
 10
729.6447303414
 20
156.7576238402
 30
0.0
  0
VERTEX
  5
28A
  8
0
  6
CONTINUOUS
 62
     7
 10
712.8631543636
 20
156.7282238491
 30
0.0
  0
VERTEX
  5
28B
  8
0
  6
CONTINUOUS
 62
     7
 10
697.1015777707
 20
156.7057305463
 30
0.0
  0
VERTEX
  5
28C
  8
0
  6
CONTINUOUS
 62
     7
 10
687.140117985
 20
156.6940778382
 30
0.0
  0
VERTEX
  5
28D
  8
0
  6
CONTINUOUS
 62
     7
 10
677.7503822266
 20
156.6849136241
 30
0.0
  0
VERTEX
  5
28E
  8
0
  6
CONTINUOUS
 62
     7
 10
669.005930078
 20
156.6779622324
 30
0.0
  0
VERTEX
  5
28F
  8
0
  6
CONTINUOUS
 62
     7
 10
660.9963044792
 20
156.6729405411
 30
0.0
  0
VERTEX
  5
290
  8
0
  6
CONTINUOUS
 62
     7
 10
653.8110204309
 20
156.6695281752
 30
0.0
  0
VERTEX
  5
291
  8
0
  6
CONTINUOUS
 62
     7
 10
647.6173267036
 20
156.6674122103
 30
0.0
  0
VERTEX
  5
292
  8
0
  6
CONTINUOUS
 62
     7
 10
642.2931483283
 20
156.6662052162
 30
0.0
  0
VERTEX
  5
293
  8
0
  6
CONTINUOUS
 62
     7
 10
637.7263000503
 20
156.6656240709
 30
0.0
  0
VERTEX
  5
294
  8
0
  6
CONTINUOUS
 62
     7
 10
633.6404081702
 20
156.6654601582
 30
0.0
  0
SEQEND
  5
34C
  8
0
  6
CONTINUOUS
 62
     7
  0
POLYLINE
  5
C6
  8
0
  6
CONTINUOUS
 62
     7
 66
     1
 10
0.0
 20
0.0
 30
0.0
 70
   128
  0
VERTEX
  5
295
  8
0
  6
CONTINUOUS
 62
     7
 10
633.6404081702
 20
156.6654601582
 30
0.0
  0
VERTEX
  5
296
  8
0
  6
CONTINUOUS
 62
     7
 10
629.4768607512
 20
156.6656315215
 30
0.0
  0
VERTEX
  5
297
  8
0
  6
CONTINUOUS
 62
     7
 10
624.8084936559
 20
156.6662424691
 30
0.0
  0
VERTEX
  5
298
  8
0
  6
CONTINUOUS
 62
     7
 10
619.3483412533
 20
156.6675016173
 30
0.0
  0
VERTEX
  5
299
  8
0
  6
CONTINUOUS
 62
     7
 10
612.9854075878
 20
156.6697218903
 30
0.0
  0
VERTEX
  5
29A
  8
0
  6
CONTINUOUS
 62
     7
 10
605.7388089865
 20
156.6732460149
 30
0.0
  0
VERTEX
  5
29B
  8
0
  6
CONTINUOUS
 62
     7
 10
597.8241857409
 20
156.6782826074
 30
0.0
  0
VERTEX
  5
29C
  8
0
  6
CONTINUOUS
 62
     7
 10
589.2057154595
 20
156.6852041967
 30
0.0
  0
VERTEX
  5
29D
  8
0
  6
CONTINUOUS
 62
     7
 10
579.967632544
 20
156.6942641028
 30
0.0
  0
VERTEX
  5
29E
  8
0
  6
CONTINUOUS
 62
     7
 10
570.1792385697
 20
156.7057305463
 30
0.0
  0
VERTEX
  5
29F
  8
0
  6
CONTINUOUS
 62
     7
 10
554.4176619768
 20
156.7282238491
 30
0.0
  0
VERTEX
  5
2A0
  8
0
  6
CONTINUOUS
 62
     7
 10
537.636085999
 20
156.7576238402
 30
0.0
  0
VERTEX
  5
2A1
  8
0
  6
CONTINUOUS
 62
     7
 10
519.9112963199
 20
156.7948022373
 30
0.0
  0
VERTEX
  5
2A2
  8
0
  6
CONTINUOUS
 62
     7
 10
501.3049092411
 20
156.8405860551
 30
0.0
  0
VERTEX
  5
2A3
  8
0
  6
CONTINUOUS
 62
     7
 10
481.9045808434
 20
156.8956979998
 30
0.0
  0
VERTEX
  5
2A4
  8
0
  6
CONTINUOUS
 62
     7
 10
461.8098136305
 20
156.9607192166
 30
0.0
  0
VERTEX
  5
2A5
  8
0
  6
CONTINUOUS
 62
     7
 10
430.6568350911
 20
157.0774847158
 30
0.0
  0
VERTEX
  5
2A6
  8
0
  6
CONTINUOUS
 62
     7
 10
398.405864489
 20
157.2188147791
 30
0.0
  0
VERTEX
  5
2A7
  8
0
  6
CONTINUOUS
 62
     7
 10
365.1880022406
 20
157.3861324676
 30
0.0
  0
VERTEX
  5
2A8
  8
0
  6
CONTINUOUS
 62
     7
 10
331.1213847517
 20
157.5806447752
 30
0.0
  0
VERTEX
  5
2A9
  8
0
  6
CONTINUOUS
 62
     7
 10
296.3426407694
 20
157.8031638153
 30
0.0
  0
VERTEX
  5
2AA
  8
0
  6
CONTINUOUS
 62
     7
 10
260.9494325041
 20
158.0544718989
 30
0.0
  0
VERTEX
  5
2AB
  8
0
  6
CONTINUOUS
 62
     7
 10
225.0174578547
 20
158.3352023252
 30
0.0
  0
VERTEX
  5
2AC
  8
0
  6
CONTINUOUS
 62
     7
 10
188.6056658148
 20
158.646159757
 30
0.0
  0
SEQEND
  5
34D
  8
0
  6
CONTINUOUS
 62
     7
  0
POLYLINE
  5
C7
  8
0
  6
CONTINUOUS
 62
     7
 66
     1
 10
0.0
 20
0.0
 30
0.0
 70
   128
  0
VERTEX
  5
2AD
  8
0
  6
CONTINUOUS
 62
     7
 10
616.1171846359
 20
268.8915552087
 30
0.0
  0
VERTEX
  5
2AE
  8
0
  6
CONTINUOUS
 62
     7
 10
619.7422478616
 20
270.5829636641
 30
0.0
  0
VERTEX
  5
2AF
  8
0
  6
CONTINUOUS
 62
     7
 10
623.0828432634
 20
271.7421249934
 30
0.0
  0
VERTEX
  5
2B0
  8
0
  6
CONTINUOUS
 62
     7
 10
626.1319789372
 20
272.4999682494
 30
0.0
  0
VERTEX
  5
2B1
  8
0
  6
CONTINUOUS
 62
     7
 10
630.2278410911
 20
273.101800073
 30
0.0
  0
VERTEX
  5
2B2
  8
0
  6
CONTINUOUS
 62
     7
 10
633.9713596133
 20
273.2551441975
 30
0.0
  0
VERTEX
  5
2B3
  8
0
  6
CONTINUOUS
 62
     7
 10
637.7524725429
 20
273.031619329
 30
0.0
  0
VERTEX
  5
2B4
  8
0
  6
CONTINUOUS
 62
     7
 10
641.9416178286
 20
272.3291785904
 30
0.0
  0
VERTEX
  5
2B5
  8
0
  6
CONTINUOUS
 62
     7
 10
645.0678944855
 20
271.4746007212
 30
0.0
  0
VERTEX
  5
2B6
  8
0
  6
CONTINUOUS
 62
     7
 10
648.4872183099
 20
270.1863469072
 30
0.0
  0
VERTEX
  5
2B7
  8
0
  6
CONTINUOUS
 62
     7
 10
652.1824650734
 20
268.3255420514
 30
0.0
  0
VERTEX
  5
2B8
  8
0
  6
CONTINUOUS
 62
     7
 10
655.1010996371
 20
266.4528367557
 30
0.0
  0
VERTEX
  5
2B9
  8
0
  6
CONTINUOUS
 62
     7
 10
658.0966614454
 20
264.0781094767
 30
0.0
  0
VERTEX
  5
2BA
  8
0
  6
CONTINUOUS
 62
     7
 10
661.0951978981
 20
261.1087550856
 30
0.0
  0
VERTEX
  5
2BB
  8
0
  6
CONTINUOUS
 62
     7
 10
663.986866948
 20
257.4476701655
 30
0.0
  0
VERTEX
  5
2BC
  8
0
  6
CONTINUOUS
 62
     7
 10
666.610657823
 20
253.0098473169
 30
0.0
  0
VERTEX
  5
2BD
  8
0
  6
CONTINUOUS
 62
     7
 10
668.7386479496
 20
247.772114303
 30
0.0
  0
VERTEX
  5
2BE
  8
0
  6
CONTINUOUS
 62
     7
 10
670.0977195322
 20
241.8394023069
 30
0.0
  0
VERTEX
  5
2BF
  8
0
  6
CONTINUOUS
 62
     7
 10
670.4476472258
 20
235.5253874073
 30
0.0
  0
VERTEX
  5
2C0
  8
0
  6
CONTINUOUS
 62
     7
 10
669.71604864
 20
229.2986670025
 30
0.0
  0
VERTEX
  5
2C1
  8
0
  6
CONTINUOUS
 62
     7
 10
668.0489179015
 20
223.5904074721
 30
0.0
  0
VERTEX
  5
2C2
  8
0
  6
CONTINUOUS
 62
     7
 10
665.7133732259
 20
218.6366011836
 30
0.0
  0
VERTEX
  5
2C3
  8
0
  6
CONTINUOUS
 62
     7
 10
662.9700154334
 20
214.4835376628
 30
0.0
  0
VERTEX
  5
2C4
  8
0
  6
CONTINUOUS
 62
     7
 10
660.0244395703
 20
211.0816882439
 30
0.0
  0
VERTEX
  5
2C5
  8
0
  6
CONTINUOUS
 62
     7
 10
657.0169847726
 20
208.3373320736
 30
0.0
  0
VERTEX
  5
2C6
  8
0
  6
CONTINUOUS
 62
     7
 10
654.0423888981
 20
206.153192509
 30
0.0
  0
VERTEX
  5
2C7
  8
0
  6
CONTINUOUS
 62
     7
 10
651.1636484682
 20
204.439357806
 30
0.0
  0
SEQEND
  5
34E
  8
0
  6
CONTINUOUS
 62
     7
  0
POLYLINE
  5
C8
  8
0
  6
CONTINUOUS
 62
     7
 66
     1
 10
0.0
 20
0.0
 30
0.0
 70
   128
  0
VERTEX
  5
2C8
  8
0
  6
CONTINUOUS
 62
     7
 10
651.1636484682
 20
204.439357806
 30
0.0
  0
VERTEX
  5
2C9
  8
0
  6
CONTINUOUS
 62
     7
 10
647.5389251753
 20
202.7480611094
 30
0.0
  0
VERTEX
  5
2CA
  8
0
  6
CONTINUOUS
 62
     7
 10
644.1984890296
 20
201.5889407583
 30
0.0
  0
VERTEX
  5
2CB
  8
0
  6
CONTINUOUS
 62
     7
 10
641.1494525417
 20
200.8310714253
 30
0.0
  0
VERTEX
  5
2CC
  8
0
  6
CONTINUOUS
 62
     7
 10
637.0534492924
 20
200.2291390188
 30
0.0
  0
VERTEX
  5
2CD
  8
0
  6
CONTINUOUS
 62
     7
 10
633.3097232308
 20
200.0757837184
 30
0.0
  0
VERTEX
  5
2CE
  8
0
  6
CONTINUOUS
 62
     7
 10
629.5274031616
 20
200.299412895
 30
0.0
  0
VERTEX
  5
2CF
  8
0
  6
CONTINUOUS
 62
     7
 10
625.337856476
 20
201.0020398982
 30
0.0
  0
VERTEX
  5
2D0
  8
0
  6
CONTINUOUS
 62
     7
 10
622.2116096213
 20
201.8567518778
 30
0.0
  0
VERTEX
  5
2D1
  8
0
  6
CONTINUOUS
 62
     7
 10
618.7923537835
 20
203.1450950988
 30
0.0
  0
VERTEX
  5
2D2
  8
0
  6
CONTINUOUS
 62
     7
 10
615.0971759378
 20
205.0060675927
 30
0.0
  0
VERTEX
  5
2D3
  8
0
  6
CONTINUOUS
 62
     7
 10
612.1786568581
 20
206.8788567074
 30
0.0
  0
VERTEX
  5
2D4
  8
0
  6
CONTINUOUS
 62
     7
 10
609.1842945933
 20
209.2526787408
 30
0.0
  0
VERTEX
  5
2D5
  8
0
  6
CONTINUOUS
 62
     7
 10
606.1858605861
 20
212.2218710818
 30
0.0
  0
VERTEX
  5
2D6
  8
0
  6
CONTINUOUS
 62
     7
 10
603.292103511
 20
215.8859027066
 30
0.0
  0
VERTEX
  5
2D7
  8
0
  6
CONTINUOUS
 62
     7
 10
600.6691564142
 20
220.3230773546
 30
0.0
  0
VERTEX
  5
2D8
  8
0
  6
CONTINUOUS
 62
     7
 10
598.5412072658
 20
225.5618124716
 30
0.0
  0
VERTEX
  5
2D9
  8
0
  6
CONTINUOUS
 62
     7
 10
597.1826683998
 20
231.4945221395
 30
0.0
  0
VERTEX
  5
2DA
  8
0
  6
CONTINUOUS
 62
     7
 10
596.8332734227
 20
237.8088511275
 30
0.0
  0
VERTEX
  5
2DB
  8
0
  6
CONTINUOUS
 62
     7
 10
597.5652408122
 20
244.0345338062
 30
0.0
  0
VERTEX
  5
2DC
  8
0
  6
CONTINUOUS
 62
     7
 10
599.2325950682
 20
249.7422322147
 30
0.0
  0
VERTEX
  5
2DD
  8
0
  6
CONTINUOUS
 62
     7
 10
601.5693914413
 20
254.6976627298
 30
0.0
  0
VERTEX
  5
2DE
  8
0
  6
CONTINUOUS
 62
     7
 10
604.3111548095
 20
258.8478037603
 30
0.0
  0
VERTEX
  5
2DF
  8
0
  6
CONTINUOUS
 62
     7
 10
607.2570044815
 20
262.2503907867
 30
0.0
  0
VERTEX
  5
2E0
  8
0
  6
CONTINUOUS
 62
     7
 10
610.2645412355
 20
264.9946351983
 30
0.0
  0
VERTEX
  5
2E1
  8
0
  6
CONTINUOUS
 62
     7
 10
613.2384684204
 20
267.1775957085
 30
0.0
  0
VERTEX
  5
2E2
  8
0
  6
CONTINUOUS
 62
     7
 10
616.1172218888
 20
268.891558934
 30
0.0
  0
SEQEND
  5
34F
  8
0
  6
CONTINUOUS
 62
     7
  0
POLYLINE
  5
C9
  8
0
  6
CONTINUOUS
 62
     7
 66
     1
 10
0.0
 20
0.0
 30
0.0
 70
   128
  0
VERTEX
  5
2E3
  8
0
  6
CONTINUOUS
 62
     7
 10
618.4659289464
 20
264.4421560206
 30
0.0
  0
VERTEX
  5
2E4
  8
0
  6
CONTINUOUS
 62
     7
 10
615.5383285403
 20
262.6681448408
 30
0.0
  0
VERTEX
  5
2E5
  8
0
  6
CONTINUOUS
 62
     7
 10
612.8525357961
 20
260.611957822
 30
0.0
  0
VERTEX
  5
2E6
  8
0
  6
CONTINUOUS
 62
     7
 10
611.6078678786
 20
259.4888889678
 30
0.0
  0
VERTEX
  5
2E7
  8
0
  6
CONTINUOUS
 62
     7
 10
610.4321010678
 20
258.3084674068
 30
0.0
  0
VERTEX
  5
2E8
  8
0
  6
CONTINUOUS
 62
     7
 10
609.327412796
 20
257.0752454438
 30
0.0
  0
VERTEX
  5
2E9
  8
0
  6
CONTINUOUS
 62
     7
 10
608.2956843346
 20
255.7938163616
 30
0.0
  0
VERTEX
  5
2EA
  8
0
  6
CONTINUOUS
 62
     7
 10
605.8301903575
 20
252.0308484771
 30
0.0
  0
VERTEX
  5
2EB
  8
0
  6
CONTINUOUS
 62
     7
 10
603.8346249878
 20
247.7123410888
 30
0.0
  0
VERTEX
  5
2EC
  8
0
  6
CONTINUOUS
 62
     7
 10
602.45938192
 20
242.8893716522
 30
0.0
  0
VERTEX
  5
2ED
  8
0
  6
CONTINUOUS
 62
     7
 10
601.8558811664
 20
237.6516686734
 30
0.0
  0
VERTEX
  5
2EE
  8
0
  6
CONTINUOUS
 62
     7
 10
602.146457535
 20
232.2777518519
 30
0.0
  0
VERTEX
  5
2EF
  8
0
  6
CONTINUOUS
 62
     7
 10
603.2692525803
 20
227.2708620392
 30
0.0
  0
VERTEX
  5
2F0
  8
0
  6
CONTINUOUS
 62
     7
 10
604.0968183696
 20
224.9401183315
 30
0.0
  0
VERTEX
  5
2F1
  8
0
  6
CONTINUOUS
 62
     7
 10
605.076633048
 20
222.7380377688
 30
0.0
  0
VERTEX
  5
2F2
  8
0
  6
CONTINUOUS
 62
     7
 10
606.1898634105
 20
220.6717682518
 30
0.0
  0
VERTEX
  5
2F3
  8
0
  6
CONTINUOUS
 62
     7
 10
607.4180133908
 20
218.7462513782
 30
0.0
  0
VERTEX
  5
2F4
  8
0
  6
CONTINUOUS
 62
     7
 10
609.5441594988
 20
216.0032791533
 30
0.0
  0
VERTEX
  5
2F5
  8
0
  6
CONTINUOUS
 62
     7
 10
611.9668945938
 20
213.5055763163
 30
0.0
  0
VERTEX
  5
2F6
  8
0
  6
CONTINUOUS
 62
     7
 10
613.0129300326
 20
212.5827287771
 30
0.0
  0
VERTEX
  5
2F7
  8
0
  6
CONTINUOUS
 62
     7
 10
614.100051698
 20
211.7064846196
 30
0.0
  0
VERTEX
  5
2F8
  8
0
  6
CONTINUOUS
 62
     7
 10
615.2261995047
 20
210.8787549176
 30
0.0
  0
VERTEX
  5
2F9
  8
0
  6
CONTINUOUS
 62
     7
 10
616.3892276853
 20
210.1013613381
 30
0.0
  0
VERTEX
  5
2FA
  8
0
  6
CONTINUOUS
 62
     7
 10
617.586899203
 20
209.3760361411
 30
0.0
  0
VERTEX
  5
2FB
  8
0
  6
CONTINUOUS
 62
     7
 10
619.1770663753
 20
208.5209516324
 30
0.0
  0
VERTEX
  5
2FC
  8
0
  6
CONTINUOUS
 62
     7
 10
621.1454743787
 20
207.6177587249
 30
0.0
  0
VERTEX
  5
2FD
  8
0
  6
CONTINUOUS
 62
     7
 10
623.3929531916
 20
206.7776312568
 30
0.0
  0
VERTEX
  5
2FE
  8
0
  6
CONTINUOUS
 62
     7
 10
625.2030046924
 20
206.2375423946
 30
0.0
  0
VERTEX
  5
2FF
  8
0
  6
CONTINUOUS
 62
     7
 10
626.4239168994
 20
205.9381203242
 30
0.0
  0
VERTEX
  5
300
  8
0
  6
CONTINUOUS
 62
     7
 10
628.9677025087
 20
205.4730029293
 30
0.0
  0
VERTEX
  5
301
  8
0
  6
CONTINUOUS
 62
     7
 10
631.1976929463
 20
205.2338094898
 30
0.0
  0
VERTEX
  5
302
  8
0
  6
CONTINUOUS
 62
     7
 10
633.3518944192
 20
205.1461049803
 30
0.0
  0
VERTEX
  5
303
  8
0
  6
CONTINUOUS
 62
     7
 10
634.8434389837
 20
205.1661246904
 30
0.0
  0
VERTEX
  5
304
  8
0
  6
CONTINUOUS
 62
     7
 10
636.4807690296
 20
205.2648597844
 30
0.0
  0
VERTEX
  5
305
  8
0
  6
CONTINUOUS
 62
     7
 10
638.2587604492
 20
205.4652338364
 30
0.0
  0
VERTEX
  5
306
  8
0
  6
CONTINUOUS
 62
     7
 10
640.1696173742
 20
205.7918635644
 30
0.0
  0
VERTEX
  5
307
  8
0
  6
CONTINUOUS
 62
     7
 10
641.8839978322
 20
206.186865408
 30
0.0
  0
VERTEX
  5
308
  8
0
  6
CONTINUOUS
 62
     7
 10
644.2166134983
 20
206.8886989244
 30
0.0
  0
VERTEX
  5
309
  8
0
  6
CONTINUOUS
 62
     7
 10
646.9364488765
 20
207.9656822123
 30
0.0
  0
VERTEX
  5
30A
  8
0
  6
CONTINUOUS
 62
     7
 10
648.814887394
 20
208.8887607195
 30
0.0
  0
SEQEND
  5
350
  8
0
  6
CONTINUOUS
 62
     7
  0
POLYLINE
  5
CA
  8
0
  6
CONTINUOUS
 62
     7
 66
     1
 10
0.0
 20
0.0
 30
0.0
 70
   128
  0
VERTEX
  5
30B
  8
0
  6
CONTINUOUS
 62
     7
 10
648.814887394
 20
208.8887607195
 30
0.0
  0
VERTEX
  5
30C
  8
0
  6
CONTINUOUS
 62
     7
 10
651.7420091003
 20
210.6624459364
 30
0.0
  0
VERTEX
  5
30D
  8
0
  6
CONTINUOUS
 62
     7
 10
654.4277571409
 20
212.7185156085
 30
0.0
  0
VERTEX
  5
30E
  8
0
  6
CONTINUOUS
 62
     7
 10
655.6725386798
 20
213.8416440673
 30
0.0
  0
VERTEX
  5
30F
  8
0
  6
CONTINUOUS
 62
     7
 10
656.8484954804
 20
215.0222202279
 30
0.0
  0
VERTEX
  5
310
  8
0
  6
CONTINUOUS
 62
     7
 10
657.953431484
 20
216.2557066866
 30
0.0
  0
VERTEX
  5
311
  8
0
  6
CONTINUOUS
 62
     7
 10
658.9854523807
 20
217.5375213363
 30
0.0
  0
VERTEX
  5
312
  8
0
  6
CONTINUOUS
 62
     7
 10
661.4506054937
 20
221.3000254222
 30
0.0
  0
VERTEX
  5
313
  8
0
  6
CONTINUOUS
 62
     7
 10
663.4462490945
 20
225.6187218689
 30
0.0
  0
VERTEX
  5
314
  8
0
  6
CONTINUOUS
 62
     7
 10
664.8216598004
 20
230.442661278
 30
0.0
  0
VERTEX
  5
315
  8
0
  6
CONTINUOUS
 62
     7
 10
665.4250245809
 20
235.6821468082
 30
0.0
  0
VERTEX
  5
316
  8
0
  6
CONTINUOUS
 62
     7
 10
665.1362065493
 20
241.0400225297
 30
0.0
  0
VERTEX
  5
317
  8
0
  6
CONTINUOUS
 62
     7
 10
664.0220653533
 20
246.0263343044
 30
0.0
  0
VERTEX
  5
318
  8
0
  6
CONTINUOUS
 62
     7
 10
662.2304782539
 20
250.5393148847
 30
0.0
  0
VERTEX
  5
319
  8
0
  6
CONTINUOUS
 62
     7
 10
659.9117309123
 20
254.5135626085
 30
0.0
  0
VERTEX
  5
31A
  8
0
  6
CONTINUOUS
 62
     7
 10
658.8359080523
 20
255.987805266
 30
0.0
  0
VERTEX
  5
31B
  8
0
  6
CONTINUOUS
 62
     7
 10
657.7334754437
 20
257.3312958218
 30
0.0
  0
VERTEX
  5
31C
  8
0
  6
CONTINUOUS
 62
     7
 10
656.5570585697
 20
258.6130657681
 30
0.0
  0
VERTEX
  5
31D
  8
0
  6
CONTINUOUS
 62
     7
 10
655.3100623458
 20
259.8289018013
 30
0.0
  0
VERTEX
  5
31E
  8
0
  6
CONTINUOUS
 62
     7
 10
654.2640958249
 20
260.7513861247
 30
0.0
  0
VERTEX
  5
31F
  8
0
  6
CONTINUOUS
 62
     7
 10
653.1772777706
 20
261.6271236427
 30
0.0
  0
VERTEX
  5
320
  8
0
  6
CONTINUOUS
 62
     7
 10
652.0516775816
 20
262.4542293586
 30
0.0
  0
VERTEX
  5
321
  8
0
  6
CONTINUOUS
 62
     7
 10
650.8894652396
 20
263.2309114076
 30
0.0
  0
VERTEX
  5
322
  8
0
  6
CONTINUOUS
 62
     7
 10
649.6928889572
 20
263.9554766454
 30
0.0
  0
VERTEX
  5
323
  8
0
  6
CONTINUOUS
 62
     7
 10
648.1083274155
 20
264.8076684661
 30
0.0
  0
VERTEX
  5
324
  8
0
  6
CONTINUOUS
 62
     7
 10
646.1381126463
 20
265.7119957246
 30
0.0
  0
VERTEX
  5
325
  8
0
  6
CONTINUOUS
 62
     7
 10
643.8845662668
 20
266.5543807186
 30
0.0
  0
VERTEX
  5
326
  8
0
  6
CONTINUOUS
 62
     7
 10
642.0733673766
 20
267.0945608504
 30
0.0
  0
VERTEX
  5
327
  8
0
  6
CONTINUOUS
 62
     7
 10
640.8557338908
 20
267.3930571862
 30
0.0
  0
VERTEX
  5
328
  8
0
  6
CONTINUOUS
 62
     7
 10
638.3133801899
 20
267.8578746952
 30
0.0
  0
VERTEX
  5
329
  8
0
  6
CONTINUOUS
 62
     7
 10
636.0829138465
 20
268.097129602
 30
0.0
  0
VERTEX
  5
32A
  8
0
  6
CONTINUOUS
 62
     7
 10
633.9291519578
 20
268.1848117598
 30
0.0
  0
VERTEX
  5
32B
  8
0
  6
CONTINUOUS
 62
     7
 10
632.3319365072
 20
268.1606159993
 30
0.0
  0
VERTEX
  5
32C
  8
0
  6
CONTINUOUS
 62
     7
 10
630.6659526925
 20
268.0539274104
 30
0.0
  0
VERTEX
  5
32D
  8
0
  6
CONTINUOUS
 62
     7
 10
629.0057465702
 20
267.863287542
 30
0.0
  0
VERTEX
  5
32E
  8
0
  6
CONTINUOUS
 62
     7
 10
627.1112450666
 20
267.5392878689
 30
0.0
  0
VERTEX
  5
32F
  8
0
  6
CONTINUOUS
 62
     7
 10
625.4104875296
 20
267.147862304
 30
0.0
  0
VERTEX
  5
330
  8
0
  6
CONTINUOUS
 62
     7
 10
623.0641916662
 20
266.4423910417
 30
0.0
  0
VERTEX
  5
331
  8
0
  6
CONTINUOUS
 62
     7
 10
620.323580344
 20
265.3558896371
 30
0.0
  0
VERTEX
  5
332
  8
0
  6
CONTINUOUS
 62
     7
 10
618.4659289464
 20
264.4421560206
 30
0.0
  0
SEQEND
  5
351
  8
0
  6
CONTINUOUS
 62
     7
  0
ARC
  5
CB
  8
0
  6
CONTINUOUS
 62
     7
 10
633.6404081702
 20
236.66545837
 30
0.0
 40
26.40000000048233
 50
118.6478897611
 51
298.6478897657
  0
ARC
  5
CC
  8
0
  6
CONTINUOUS
 62
     7
 10
633.6404081702
 20
236.66545837
 30
0.0
 40
26.40000000048233
 50
298.6478897657
 51
118.6478897611
  0
ARC
  5
CD
  8
0
  6
CONTINUOUS
 62
     7
 10
633.6400390224
 20
236.6652567037
 30
0.0
 40
23.99999963816849
 50
118.6468858858
 51
298.6488943019
  0
ARC
  5
CE
  8
0
  6
CONTINUOUS
 62
     7
 10
633.640777318
 20
236.6656600364
 30
0.0
 40
23.99999963816844
 50
298.6468858858
 51
118.6488943019
  0
LINE
  5
CF
  8
0
  6
CONTINUOUS
 62
     7
 10
1190.969526422
 20
680.4394859772
 30
0.0
 11
1190.9571286559
 21
680.4394859499
 31
0.0
  0
LINE
  5
D0
  8
0
  6
CONTINUOUS
 62
     7
 10
76.3236876845
 20
680.4394859499
 30
0.0
 11
76.3112899184
 21
680.4394859772
 31
0.0
  0
LINE
  5
D1
  8
0
  6
CONTINUOUS
 62
     7
 10
603.5691477626
 20
560.4394887192
 30
0.0
 11
605.6404073059
 21
557.6778043611
 31
0.0
  0
LINE
  5
D2
  8
0
  6
CONTINUOUS
 62
     7
 10
661.6404090344
 20
557.6778043611
 30
0.0
 11
663.7116685777
 21
560.4394887192
 31
0.0
  0
ARC
  5
D3
  8
0
  6
CONTINUOUS
 62
     7
 10
609.6034613445
 20
560.5257002744
 30
0.0
 40
4.848033302006876
 50
216.6485329529
 51
270.4366524695
  0
ARC
  5
D4
  8
0
  6
CONTINUOUS
 62
     7
 10
657.6773549958
 20
560.5257002744
 30
0.0
 40
4.848033302006876
 50
269.5633475305
 51
323.3514670471
  0
ARC
  5
D5
  8
0
  6
CONTINUOUS
 62
     7
 10
36.6404081702
 20
563.439486037
 30
0.0
 40
3.000000000000007
 50
180.0
 51
270.0
  0
LINE
  5
D6
  8
0
  6
CONTINUOUS
 62
     7
 10
1230.6404110312
 20
560.4394887192
 30
0.0
 11
36.6404053091
 21
560.4394887192
 31
0.0
  0
LINE
  5
D7
  8
0
  6
CONTINUOUS
 62
     7
 10
33.6403843283
 20
563.4394873483
 30
0.0
 11
33.6403843283
 21
677.439486011
 31
0.0
  0
LINE
  5
D8
  8
0
  6
CONTINUOUS
 62
     7
 10
1233.640432012
 20
677.439486011
 30
0.0
 11
1233.640432012
 21
563.4394873483
 31
0.0
  0
ARC
  5
D9
  8
0
  6
CONTINUOUS
 62
     7
 10
1230.6404081702
 20
563.439486037
 30
0.0
 40
3.000000000000227
 50
270.0
 51
0.0
  0
ARC
  5
DA
  8
0
  6
CONTINUOUS
 62
     7
 10
36.6404081702
 20
677.439486037
 30
0.0
 40
3.000000000000007
 50
90.0
 51
180.0
  0
ARC
  5
DB
  8
0
  6
CONTINUOUS
 62
     7
 10
1230.6404081702
 20
677.439486037
 30
0.0
 40
3.0
 50
359.9999999999
 51
90.0
  0
LINE
  5
DC
  8
0
  6
CONTINUOUS
 62
     7
 10
36.6404053091
 20
680.439486037
 30
0.0
 11
1230.6404110312
 21
680.439486037
 31
0.0
  0
LINE
  5
DD
  8
0
  6
CONTINUOUS
 62
     7
 10
645.1466210454
 20
555.6778077586
 30
0.0
 11
609.6416186809
 21
555.6778077586
 31
0.0
  0
LINE
  5
DE
  8
0
  6
CONTINUOUS
 62
     7
 10
657.6279677718
 20
555.6778077586
 30
0.0
 11
645.1466210454
 21
555.6778077586
 31
0.0
  0
LINE
  5
DF
  8
0
  6
CONTINUOUS
 62
     7
 10
33.6403843283
 20
563.4394873483
 30
0.0
 11
36.6404053091
 21
563.4394873483
 31
0.0
  0
LINE
  5
E0
  8
0
  6
CONTINUOUS
 62
     7
 10
36.6404053091
 20
563.4394873483
 30
0.0
 11
36.6404053091
 21
560.4394887192
 31
0.0
  0
LINE
  5
E1
  8
0
  6
CONTINUOUS
 62
     7
 10
36.6404053091
 20
563.4394873483
 30
0.0
 11
1230.6404110312
 21
563.4394873483
 31
0.0
  0
LINE
  5
E2
  8
0
  6
CONTINUOUS
 62
     7
 10
1230.6404110312
 20
563.4394873483
 30
0.0
 11
1230.6404110312
 21
560.4394887192
 31
0.0
  0
LINE
  5
E3
  8
0
  6
CONTINUOUS
 62
     7
 10
33.6403843283
 20
677.439486011
 30
0.0
 11
36.6404053091
 21
677.439486011
 31
0.0
  0
LINE
  5
E4
  8
0
  6
CONTINUOUS
 62
     7
 10
36.6404053091
 20
677.439486011
 30
0.0
 11
36.6404053091
 21
563.4394873483
 31
0.0
  0
LINE
  5
E5
  8
0
  6
CONTINUOUS
 62
     7
 10
1230.6404110312
 20
677.439486011
 30
0.0
 11
1233.640432012
 21
677.439486011
 31
0.0
  0
LINE
  5
E6
  8
0
  6
CONTINUOUS
 62
     7
 10
1230.6404110312
 20
563.4394873483
 30
0.0
 11
1233.640432012
 21
563.4394873483
 31
0.0
  0
LINE
  5
E7
  8
0
  6
CONTINUOUS
 62
     7
 10
1230.6404110312
 20
563.4394873483
 30
0.0
 11
1230.6404110312
 21
677.439486011
 31
0.0
  0
LINE
  5
E8
  8
0
  6
CONTINUOUS
 62
     7
 10
36.6404053091
 20
677.439486011
 30
0.0
 11
1230.6404110312
 21
677.439486011
 31
0.0
  0
LINE
  5
E9
  8
0
  6
CONTINUOUS
 62
     7
 10
36.6404053091
 20
680.439486037
 30
0.0
 11
36.6404053091
 21
677.439486011
 31
0.0
  0
LINE
  5
EA
  8
0
  6
CONTINUOUS
 62
     7
 10
1230.6404110312
 20
677.439486011
 30
0.0
 11
1230.6404110312
 21
680.439486037
 31
0.0
  0
LINE
  5
EB
  8
0
  6
CONTINUOUS
 62
     7
 10
605.6404073059
 20
557.6778043611
 30
0.0
 11
647.0643231913
 21
557.6778043611
 31
0.0
  0
LINE
  5
EC
  8
0
  6
CONTINUOUS
 62
     7
 10
647.0643231913
 20
557.6778043611
 30
0.0
 11
661.6404090344
 21
557.6778043611
 31
0.0
  0
LINE
  5
ED
  8
0
  6
CONTINUOUS
 62
     7
 10
1598.9518185215
 20
557.6778043611
 30
0.0
 11
1601.0230780648
 21
560.4394887192
 31
0.0
  0
ARC
  5
EE
  8
0
  6
CONTINUOUS
 62
     7
 10
1546.9161041307
 20
560.5307503398
 30
0.0
 40
4.853073988434618
 50
216.61400242
 51
270.4216380918
  0
ARC
  5
EF
  8
0
  6
CONTINUOUS
 62
     7
 10
1594.9875311837
 20
560.5307503398
 30
0.0
 40
4.853073988434512
 50
269.5783619082
 51
323.38599758
  0
LINE
  5
F0
  8
0
  6
CONTINUOUS
 62
     7
 10
1540.8805572497
 20
560.4394887192
 30
0.0
 11
1542.951816793
 21
557.6778043611
 31
0.0
  0
ARC
  5
F1
  8
0
  6
CONTINUOUS
 62
     7
 10
1306.4518176572
 20
563.439486037
 30
0.0
 40
3.0
 50
180.0
 51
270.0
  0
LINE
  5
F2
  8
0
  6
CONTINUOUS
 62
     7
 10
1303.4518045442
 20
563.4394873483
 30
0.0
 11
1303.4518045442
 21
677.439486011
 31
0.0
  0
ARC
  5
F3
  8
0
  6
CONTINUOUS
 62
     7
 10
1306.4518176572
 20
677.439486037
 30
0.0
 40
3.0
 50
90.0
 51
180.0
  0
LINE
  5
F4
  8
0
  6
CONTINUOUS
 62
     7
 10
1760.4518217104
 20
560.4394887192
 30
0.0
 11
1306.4518255251
 21
560.4394887192
 31
0.0
  0
LINE
  5
F5
  8
0
  6
CONTINUOUS
 62
     7
 10
1306.4518255251
 20
680.439486037
 30
0.0
 11
1760.4518217104
 21
680.439486037
 31
0.0
  0
ARC
  5
F6
  8
0
  6
CONTINUOUS
 62
     7
 10
1760.4518176572
 20
677.439486037
 30
0.0
 40
3.0
 50
359.9999999999
 51
90.0
  0
ARC
  5
F7
  8
0
  6
CONTINUOUS
 62
     7
 10
1760.4518176572
 20
563.439486037
 30
0.0
 40
3.0
 50
270.0
 51
0.0
  0
LINE
  5
F8
  8
0
  6
CONTINUOUS
 62
     7
 10
1763.4518128889
 20
677.439486011
 30
0.0
 11
1763.4518128889
 21
563.4394873483
 31
0.0
  0
LINE
  5
F9
  8
0
  6
CONTINUOUS
 62
     7
 10
1594.8720817523
 20
555.6778077586
 30
0.0
 11
1549.8898365604
 21
555.6778077586
 31
0.0
  0
LINE
  5
FA
  8
0
  6
CONTINUOUS
 62
     7
 10
1549.8898365604
 20
555.6778077586
 30
0.0
 11
1546.9776504742
 21
555.6778077586
 31
0.0
  0
LINE
  5
FB
  8
0
  6
CONTINUOUS
 62
     7
 10
1303.4518045442
 20
563.4394873483
 30
0.0
 11
1306.4518255251
 21
563.4394873483
 31
0.0
  0
LINE
  5
FC
  8
0
  6
CONTINUOUS
 62
     7
 10
1306.4518255251
 20
560.4394887192
 30
0.0
 11
1306.4518255251
 21
563.4394873483
 31
0.0
  0
LINE
  5
FD
  8
0
  6
CONTINUOUS
 62
     7
 10
1303.4518045442
 20
677.439486011
 30
0.0
 11
1306.4518255251
 21
677.439486011
 31
0.0
  0
LINE
  5
FE
  8
0
  6
CONTINUOUS
 62
     7
 10
1306.4518255251
 20
677.439486011
 30
0.0
 11
1306.4518255251
 21
563.4394873483
 31
0.0
  0
LINE
  5
FF
  8
0
  6
CONTINUOUS
 62
     7
 10
1306.4518255251
 20
680.439486037
 30
0.0
 11
1306.4518255251
 21
677.439486011
 31
0.0
  0
LINE
  5
100
  8
0
  6
CONTINUOUS
 62
     7
 10
1306.4518255251
 20
677.439486011
 30
0.0
 11
1760.4518217104
 21
677.439486011
 31
0.0
  0
LINE
  5
101
  8
0
  6
CONTINUOUS
 62
     7
 10
1760.4518217104
 20
563.4394873483
 30
0.0
 11
1760.4518217104
 21
677.439486011
 31
0.0
  0
LINE
  5
102
  8
0
  6
CONTINUOUS
 62
     7
 10
1306.4518255251
 20
563.4394873483
 30
0.0
 11
1760.4518217104
 21
563.4394873483
 31
0.0
  0
LINE
  5
103
  8
0
  6
CONTINUOUS
 62
     7
 10
1760.4518217104
 20
560.4394887192
 30
0.0
 11
1760.4518217104
 21
563.4394873483
 31
0.0
  0
LINE
  5
104
  8
0
  6
CONTINUOUS
 62
     7
 10
1760.4518217104
 20
677.439486011
 30
0.0
 11
1760.4518217104
 21
680.439486037
 31
0.0
  0
LINE
  5
105
  8
0
  6
CONTINUOUS
 62
     7
 10
1760.4518217104
 20
677.439486011
 30
0.0
 11
1763.4518128889
 21
677.439486011
 31
0.0
  0
LINE
  5
106
  8
0
  6
CONTINUOUS
 62
     7
 10
1760.4518217104
 20
563.4394873483
 30
0.0
 11
1763.4518128889
 21
563.4394873483
 31
0.0
  0
LINE
  5
107
  8
0
  6
CONTINUOUS
 62
     7
 10
1546.379506688
 20
557.6778043611
 30
0.0
 11
1598.9518185215
 21
557.6778043611
 31
0.0
  0
LINE
  5
108
  8
0
  6
CONTINUOUS
 62
     7
 10
1542.9518186556
 20
557.6778043611
 30
0.0
 11
1546.379506688
 21
557.6778043611
 31
0.0
  0
ENDSEC
  0
EOF
