  0
SECTION
  2
HEADER
  9
$ACADVER
  1
AC1009
  9
$ANGBASE
 50
       0.000000
  9
$ANGDIR
 70
     0
  9
$ATTDIA
 70
     0
  9
$ATTMODE
 70
     0
  9
$ATTREQ
 70
     0
  9
$AUNITS
 70
     0
  9
$AUPREC
 70
     1
  9
$BLIPMODE
 70
     1
  9
$CECOLOR
 62
   256
  9
$CELTYPE
  6
BYLAYER
  9
$CHAMFERA
 40
       0.000000
  9
$CHAMFERB
 40
       0.000000
  9
$CLAYER
  8
0
  9
$COORDS
 70
     1
  9
$DIMALT
 70
     0
  9
$DIMALTD
 70
     2
  9
$DIMALTF
 40
      25.400000
  9
$DIMAPOST
  1

  9
$DIMASO
 70
     0
  9
$DIMASZ
 40
       3.500000
  9
$DIMBLK
  1

  9
$DIMBLK1
  1

  9
$DIMBLK2
  1

  9
$DIMCEN
 40
       1.500000
  9
$DIMCLRD
 70
     0
  9
$DIMCLRE
 70
     0
  9
$DIMCLRT
 70
     0
  9
$DIMDLE
 40
       0.000000
  9
$DIMDLI
 40
       7.000000
  9
$DIMEXE
 40
       1.800000
  9
$DIMEXO
 40
       0.100000
  9
$DIMGAP
 40
       0.090000
  9
$DIMLFAC
 40
       1.000000
  9
$DIMLIM
 70
     0
  9
$DIMPOST
  1

  9
$DIMRND
 40
       0.000000
  9
$DIMSAH
 70
     0
  9
$DIMSCALE
 40
       1.000000
  9
$DIMSE1
 70
     0
  9
$DIMSE2
 70
     0
  9
$DIMSHO
 70
     1
  9
$DIMSOXD
 70
     0
  9
$DIMSTYLE
  2
*UNNAMED
  9
$DIMTAD
 70
     1
  9
$DIMTFAC
 40
       1.000000
  9
$DIMTIH
 70
     0
  9
$DIMTIX
 70
     0
  9
$DIMTM
 40
       0.000000
  9
$DIMTOFL
 70
     0
  9
$DIMTOH
 70
     0
  9
$DIMTOL
 70
     0
  9
$DIMTP
 40
       0.000000
  9
$DIMTSZ
 40
       0.000000
  9
$DIMTVP
 40
       0.000000
  9
$DIMTXT
 40
       3.500000
  9
$DIMZIN
 70
     0
  9
$DRAGMODE
 70
     2
  9
$DWGCODEPAGE
  3
iso8859-1
  9
$ELEVATION
 40
       0.000000
  9
$EXTMAX
 10
    3223.941162
 20
    2002.616943
 30
       0.000000
  9
$EXTMIN
 10
       0.000000
 20
       0.000000
 30
       0.000000
  9
$FILLETRAD
 40
       0.000000
  9
$FILLMODE
 70
     1
  9
$HANDLING
 70
     0
  9
$HANDSEED
  5
0
  9
$INSBASE
 10
       0.000000
 20
       0.000000
 30
       0.000000
  9
$LIMCHECK
 70
     0
  9
$LIMMAX
 10
    3223.941162
 20
    2002.616943
  9
$LIMMIN
 10
       0.000000
 20
       0.000000
  9
$LTSCALE
 40
       1.000000
  9
$LUNITS
 70
     2
  9
$LUPREC
 70
     2
  9
$MAXACTVP
 70
    16
  9
$MENU
  1
ACAD
  9
$MIRRTEXT
 70
     0
  9
$ORTHOMODE
 70
     0
  9
$OSMODE
 70
     0
  9
$PDMODE
 70
     0
  9
$PDSIZE
 40
       0.000000
  9
$PELEVATION
 40
       0.000000
  9
$PEXTMAX
 10
    3223.941162
 20
    2002.616943
 30
       0.000000
  9
$PEXTMIN
 10
       0.000000
 20
       0.000000
 30
       0.000000
  9
$PINSBASE
 10
       0.000000
 20
       0.000000
 30
       0.000000
  9
$PLIMCHECK
 70
     0
  9
$PLIMMAX
 10
    3223.941162
 20
    2002.616943
  9
$PLIMMIN
 10
       0.000000
 20
       0.000000
  9
$PLINEGEN
 70
     0
  9
$PLINEWID
 40
       0.000000
  9
$PSLTSCALE
 70
     1
  9
$PUCSNAME
  2

  9
$PUCSORG
 10
       0.000000
 20
       0.000000
 30
       0.000000
  9
$PUCSXDIR
 10
       1.000000
 20
       0.000000
 30
       0.000000
  9
$PUCSYDIR
 10
       0.000000
 20
       1.000000
 30
       0.000000
  9
$QTEXTMODE
 70
     0
  9
$REGENMODE
 70
     1
  9
$SHADEDGE
 70
     3
  9
$SHADEDIF
 70
    70
  9
$SKETCHINC
 40
       1.000000
  9
$SKPOLY
 70
     0
  9
$SPLFRAME
 70
     0
  9
$SPLINESEGS
 70
     8
  9
$SPLINETYPE
 70
     6
  9
$SURFTAB1
 70
     6
  9
$SURFTAB2
 70
     6
  9
$SURFTYPE
 70
     6
  9
$SURFU
 70
     6
  9
$SURFV
 70
     6
  9
$TDCREATE
 40
2454922.5687500001
  9
$TDINDWG
 40
       0.000000
  9
$TDUPDATE
 40
2454922.5687500001
  9
$TDUSRTIMER
 40
       0.000000
  9
$TEXTSIZE
 40
       3.500000
  9
$TEXTSTYLE
  7
STANDARD
  9
$THICKNESS
 40
       0.000000
  9
$TILEMODE
 70
     1
  9
$TRACEWID
 40
       1.000000
  9
$TREEDEPTH
 70
 -3020
  9
$UCSNAME
  2

  9
$UCSORG
 10
       0.000000
 20
       0.000000
 30
       0.000000
  9
$UCSXDIR
 10
       1.000000
 20
       0.000000
 30
       0.000000
  9
$UCSYDIR
 10
       0.000000
 20
       1.000000
 30
       0.000000
  9
$UNITMODE
 70
     0
  9
$USERI1
 70
     0
  9
$USERI2
 70
     0
  9
$USERI3
 70
     0
  9
$USERI4
 70
     0
  9
$USERI5
 70
     0
  9
$USERR1
 40
       0.000000
  9
$USERR2
 40
       0.000000
  9
$USERR3
 40
       0.000000
  9
$USERR4
 40
       0.000000
  9
$USERR5
 40
       0.000000
  9
$USRTIMER
 70
     0
  9
$VISRETAIN
 70
     0
  9
$WORLDVIEW
 70
     1
  0
ENDSEC
  0
SECTION
  2
TABLES
  0
TABLE
  2
LTYPE
 70
   153
  0
LTYPE
  2
AUSGEZOGEN
 70
     0
  3
________________________________
 72
    65
 73
     2
 40
16.
 49
16.
 49
0.
  0
LTYPE
  2
VERDECKTE_KANTE
 70
     0
  3
__________________________
 72
    65
 73
     2
 40
5.
 49
4.063
 49
-0.938
  0
LTYPE
  2
HILFSLINIE
 70
     0
  3
________________________________
 72
    65
 73
     2
 40
16.
 49
16.
 49
0.
  0
LTYPE
  2
BRUCHLINIE
 70
     0
  3
________________________________
 72
    65
 73
     2
 40
16.
 49
16.
 49
0.
  0
LTYPE
  2
MITTELLINIE
 70
     0
  3
_______________________   ___
 72
    65
 73
     4
 40
13.
 49
9.34
 49
-1.22
 49
1.22
 49
-1.22
  0
LTYPE
  2
SCHNITTLINIE
 70
     0
  3
_______________________   ___
 72
    65
 73
     4
 40
13.
 49
9.34
 49
-1.22
 49
1.22
 49
-1.22
  0
LTYPE
  2
SCHWERLINIE
 70
     0
  3
______________________  __  __
 72
    65
 73
     6
 40
15.
 49
10.31
 49
-0.94
 49
0.94
 49
-0.94
 49
0.94
 49
-0.94
  0
LTYPE
  2
ENTWURFSLINIE
 70
     0
  3
__      __      __      __
 72
    65
 73
     8
 40
16.
 49
1.
 49
-3.
 49
1.
 49
-3.
 49
1.
 49
-3.
 49
1.
 49
-3.
  0
LTYPE
  2
SONDERLINIE1
 70
     0
  3
________________________________
 72
    65
 73
     2
 40
16.
 49
16.
 49
0.
  0
LTYPE
  2
SONDERLINIE2
 70
     0
  3
______________________  __  __
 72
    65
 73
     6
 40
15.
 49
10.31
 49
-0.94
 49
0.94
 49
-0.94
 49
0.94
 49
-0.94
  0
LTYPE
  2
SONDERLINIE3
 70
     0
  3
__________________  __  __  __
 72
    65
 73
     8
 40
16.
 49
9.
 49
-1.
 49
1.
 49
-1.
 49
1.
 49
-1.
 49
1.
 49
-1.
  0
LTYPE
  2
SONDERLINIE4
 70
     0
  3
__________________  __  __  __
 72
    65
 73
     8
 40
16.
 49
9.
 49
-1.
 49
1.
 49
-1.
 49
1.
 49
-1.
 49
1.
 49
-1.
  0
LTYPE
  2
SONDERLINIE5
 70
     0
  3
______________  __  __  __  __
 72
    65
 73
    10
 40
16.
 49
7.
 49
-1.
 49
1.
 49
-1.
 49
1.
 49
-1.
 49
1.
 49
-1.
 49
1.
 49
-1.
  0
LTYPE
  2
SONDERLINIE6
 70
     0
  3
______________  __  __  __  __
 72
    65
 73
    10
 40
16.
 49
7.
 49
-1.
 49
1.
 49
-1.
 49
1.
 49
-1.
 49
1.
 49
-1.
 49
1.
 49
-1.
  0
LTYPE
  2
SONDERLINIE7
 70
     0
  3
__________  __  __  __  __  __
 72
    65
 73
    12
 40
16.
 49
5.
 49
-1.
 49
1.
 49
-1.
 49
1.
 49
-1.
 49
1.
 49
-1.
 49
1.
 49
-1.
 49
1.
 49
-1.
  0
LTYPE
  2
SONDERLINIE8
 70
     0
  3
__________  __  __  __  __  __
 72
    65
 73
    12
 40
16.
 49
5.
 49
-1.
 49
1.
 49
-1.
 49
1.
 49
-1.
 49
1.
 49
-1.
 49
1.
 49
-1.
 49
1.
 49
-1.
  0
LTYPE
  2
HEIZUNG-VORLAUF
 70
     0
  3
 
 72
    65
 73
     2
 40
16.
 49
16.
 49
0.
  0
LTYPE
  2
HEIZUNG-RUECKLAUF
 70
     0
  3
 
 72
    65
 73
     2
 40
5.
 49
4.063
 49
-0.938
  0
LTYPE
  2
TRINKWASSER-KALT
 70
     0
  3
 
 72
    65
 73
     2
 40
16.
 49
16.
 49
0.
  0
LTYPE
  2
TRINKWASSER-WARM
 70
     0
  3
 
 72
    65
 73
     2
 40
5.
 49
4.063
 49
-0.938
  0
LTYPE
  2
TRINKWASSER-ZIRKULATION
 70
     0
  3
 
 72
    65
 73
     4
 40
13.
 49
9.34
 49
-1.22
 49
1.22
 49
-1.22
  0
LTYPE
  2
SANITAER-SCHMUTZWASSER
 70
     0
  3
 
 72
    65
 73
     2
 40
16.
 49
16.
 49
0.
  0
LTYPE
  2
SANITAER-REGENWASSER
 70
     0
  3
 
 72
    65
 73
     2
 40
5.
 49
4.063
 49
-0.938
  0
LTYPE
  2
SANITAER-MISCHWASSER
 70
     0
  3
 
 72
    65
 73
     4
 40
13.
 49
9.34
 49
-1.22
 49
1.22
 49
-1.22
  0
LTYPE
  2
SANITAER-ENTLUEFTUNG
 70
     0
  3
 
 72
    65
 73
     2
 40
5.
 49
4.063
 49
-0.938
  0
LTYPE
  2
SPRINKLER
 70
     0
  3
 
 72
    65
 73
     2
 40
16.
 49
16.
 49
0.
  0
LTYPE
  2
WERKWASSER
 70
     0
  3
 
 72
    65
 73
     2
 40
16.
 49
16.
 49
0.
  0
LTYPE
  2
KUEHLWASSER-VL
 70
     0
  3
 
 72
    65
 73
     2
 40
16.
 49
16.
 49
0.
  0
LTYPE
  2
KUEHLWASSER-RL-D
 70
     0
  3
 
 72
    65
 73
     2
 40
5.
 49
4.063
 49
-0.938
  0
LTYPE
  2
KUEHLWASSER-RL-DI
 70
     0
  3
 
 72
    65
 73
     2
 40
5.
 49
4.063
 49
-0.938
  0
LTYPE
  2
KALTWASSER-KAELTEANL--VL
 70
     0
  3
 
 72
    65
 73
     2
 40
16.
 49
16.
 49
0.
  0
LTYPE
  2
KALTWASSER-KAELTEANL--RL
 70
     0
  3
 
 72
    65
 73
     2
 40
5.
 49
4.063
 49
-0.938
  0
LTYPE
  2
SCHLEIFEMULSION
 70
     0
  3
 
 72
    65
 73
     2
 40
16.
 49
16.
 49
0.
  0
LTYPE
  2
BOHREMULSION
 70
     0
  3
 
 72
    65
 73
     2
 40
16.
 49
16.
 49
0.
  0
LTYPE
  2
SCHNEIDEMULSION
 70
     0
  3
 
 72
    65
 73
     2
 40
16.
 49
16.
 49
0.
  0
LTYPE
  2
DRUCKLUFT-HAUPTNETZ
 70
     0
  3
 
 72
    65
 73
     2
 40
16.
 49
16.
 49
0.
  0
LTYPE
  2
DRUCKLUFT-HOCHDRUCKNETZ
 70
     0
  3
 
 72
    65
 73
     2
 40
16.
 49
16.
 49
0.
  0
LTYPE
  2
DRUCKLUFT-NIEDERDRUCKNETZ
 70
     0
  3
 
 72
    65
 73
     2
 40
16.
 49
16.
 49
0.
  0
LTYPE
  2
MISCHWASSER-DRUCK
 70
     0
  3
 
 72
    65
 73
     2
 40
16.
 49
16.
 49
0.
  0
LTYPE
  2
MISCHWASSER-KANAL
 70
     0
  3
 
 72
    65
 73
     2
 40
16.
 49
16.
 49
0.
  0
LTYPE
  2
OELHALTIGES-ABWASSER-DRUCK
 70
     0
  3
 
 72
    65
 73
     2
 40
16.
 49
16.
 49
0.
  0
LTYPE
  2
OELHALTIGES-ABWASSER-KANAL
 70
     0
  3
 
 72
    65
 73
     2
 40
16.
 49
16.
 49
0.
  0
LTYPE
  2
REGENWASSER-DRUCK
 70
     0
  3
 
 72
    65
 73
     2
 40
16.
 49
16.
 49
0.
  0
LTYPE
  2
REGENWASSER-KANAL
 70
     0
  3
 
 72
    65
 73
     2
 40
16.
 49
16.
 49
0.
  0
LTYPE
  2
SCHMUTZWASSER-DRUCK
 70
     0
  3
 
 72
    65
 73
     2
 40
16.
 49
16.
 49
0.
  0
LTYPE
  2
SCHMUTZWASSER-KANAL
 70
     0
  3
 
 72
    65
 73
     2
 40
16.
 49
16.
 49
0.
  0
LTYPE
  2
ALTEMULSION
 70
     0
  3
 
 72
    65
 73
     2
 40
16.
 49
16.
 49
0.
  0
LTYPE
  2
ALTWASCHWASSER
 70
     0
  3
 
 72
    65
 73
     2
 40
16.
 49
16.
 49
0.
  0
LTYPE
  2
CHROMHALTIGES-SPUELWASSER
 70
     0
  3
 
 72
    65
 73
     2
 40
16.
 49
16.
 49
0.
  0
LTYPE
  2
CYANIDHALTIGES-SPUELWASSER
 70
     0
  3
 
 72
    65
 73
     2
 40
16.
 49
16.
 49
0.
  0
LTYPE
  2
GEKLAERTES-ABWASSER
 70
     0
  3
 
 72
    65
 73
     2
 40
16.
 49
16.
 49
0.
  0
LTYPE
  2
NITRITHALTIGES-SPUELWASSER
 70
     0
  3
 
 72
    65
 73
     2
 40
16.
 49
16.
 49
0.
  0
LTYPE
  2
SAURES-ALKALISCHES-ELUAT
 70
     0
  3
 
 72
    65
 73
     2
 40
16.
 49
16.
 49
0.
  0
LTYPE
  2
SAURES-ALKALISCHES-SPUELWASSER
 70
     0
  3
 
 72
    65
 73
     2
 40
16.
 49
16.
 49
0.
  0
LTYPE
  2
AMIDASULFONSAEURE
 70
     0
  3
 
 72
    65
 73
     2
 40
16.
 49
16.
 49
0.
  0
LTYPE
  2
CHROMHALTIGES-KONZENTRAT
 70
     0
  3
 
 72
    65
 73
     2
 40
16.
 49
16.
 49
0.
  0
LTYPE
  2
CYANIDHALTIGES-KONZENTRAT
 70
     0
  3
 
 72
    65
 73
     2
 40
16.
 49
16.
 49
0.
  0
LTYPE
  2
ELEKTROLYT
 70
     0
  3
 
 72
    65
 73
     2
 40
16.
 49
16.
 49
0.
  0
LTYPE
  2
NATRIUMBISULFIT
 70
     0
  3
 
 72
    65
 73
     2
 40
16.
 49
16.
 49
0.
  0
LTYPE
  2
NATRIUMHYPOCHLORIT
 70
     0
  3
 
 72
    65
 73
     2
 40
16.
 49
16.
 49
0.
  0
LTYPE
  2
NATRONLAUGE
 70
     0
  3
 
 72
    65
 73
     2
 40
16.
 49
16.
 49
0.
  0
LTYPE
  2
NITRITHALTIGES-KONZENTRAT
 70
     0
  3
 
 72
    65
 73
     2
 40
16.
 49
16.
 49
0.
  0
LTYPE
  2
PHOSPHORSAEURE
 70
     0
  3
 
 72
    65
 73
     2
 40
16.
 49
16.
 49
0.
  0
LTYPE
  2
SALPETERSAEURE
 70
     0
  3
 
 72
    65
 73
     2
 40
16.
 49
16.
 49
0.
  0
LTYPE
  2
SALZSAEURE
 70
     0
  3
 
 72
    65
 73
     2
 40
16.
 49
16.
 49
0.
  0
LTYPE
  2
SCHWEFELSAEURE
 70
     0
  3
 
 72
    65
 73
     2
 40
16.
 49
16.
 49
0.
  0
LTYPE
  2
BETRIEBSWAERME-RL
 70
     0
  3
 
 72
    65
 73
     2
 40
5.
 49
4.063
 49
-0.938
  0
LTYPE
  2
BETRIEBSWAERME-VL
 70
     0
  3
 
 72
    65
 73
     2
 40
16.
 49
16.
 49
0.
  0
LTYPE
  2
WARMWASSER-VL
 70
     0
  3
 
 72
    65
 73
     2
 40
16.
 49
16.
 49
0.
  0
LTYPE
  2
WARMWASSER-ZIRKULATION
 70
     0
  3
 
 72
    65
 73
     4
 40
13.
 49
9.34
 49
-1.22
 49
1.22
 49
-1.22
  0
LTYPE
  2
ROHWASSER
 70
     0
  3
 
 72
    65
 73
     2
 40
16.
 49
16.
 49
0.
  0
LTYPE
  2
ARGON
 70
     0
  3
 
 72
    65
 73
     2
 40
16.
 49
16.
 49
0.
  0
LTYPE
  2
CORGON
 70
     0
  3
 
 72
    65
 73
     2
 40
16.
 49
16.
 49
0.
  0
LTYPE
  2
KOHLENDIOXID
 70
     0
  3
 
 72
    65
 73
     2
 40
16.
 49
16.
 49
0.
  0
LTYPE
  2
STICKSTOFF
 70
     0
  3
 
 72
    65
 73
     2
 40
16.
 49
16.
 49
0.
  0
LTYPE
  2
AZETYLEN
 70
     0
  3
 
 72
    65
 73
     2
 40
16.
 49
16.
 49
0.
  0
LTYPE
  2
ERDGAS
 70
     0
  3
 
 72
    65
 73
     2
 40
16.
 49
16.
 49
0.
  0
LTYPE
  2
SAUERSTOFF--TECHNISCH-REIN
 70
     0
  3
 
 72
    65
 73
     2
 40
16.
 49
16.
 49
0.
  0
LTYPE
  2
TRAEGERGAS
 70
     0
  3
 
 72
    65
 73
     2
 40
16.
 49
16.
 49
0.
  0
LTYPE
  2
WASSERSTOFF
 70
     0
  3
 
 72
    65
 73
     2
 40
16.
 49
16.
 49
0.
  0
LTYPE
  2
KRAFTSTOFF-GK-A-I-D
 70
     0
  3
 
 72
    65
 73
     2
 40
16.
 49
16.
 49
0.
  0
LTYPE
  2
KRAFTSTOFF-SONDER-D
 70
     0
  3
 
 72
    65
 73
     2
 40
16.
 49
16.
 49
0.
  0
LTYPE
  2
ACHSOEL
 70
     0
  3
 
 72
    65
 73
     2
 40
16.
 49
16.
 49
0.
  0
LTYPE
  2
ALTOEL
 70
     0
  3
 
 72
    65
 73
     2
 40
16.
 49
16.
 49
0.
  0
LTYPE
  2
BOHROEL
 70
     0
  3
 
 72
    65
 73
     2
 40
16.
 49
16.
 49
0.
  0
LTYPE
  2
ERODIEROEL
 70
     0
  3
 
 72
    65
 73
     2
 40
16.
 49
16.
 49
0.
  0
LTYPE
  2
FETT
 70
     0
  3
 
 72
    65
 73
     2
 40
16.
 49
16.
 49
0.
  0
LTYPE
  2
GETRIEBEOEL
 70
     0
  3
 
 72
    65
 73
     2
 40
16.
 49
16.
 49
0.
  0
LTYPE
  2
HAERTEOEL
 70
     0
  3
 
 72
    65
 73
     2
 40
16.
 49
16.
 49
0.
  0
LTYPE
  2
HONOEL
 70
     0
  3
 
 72
    65
 73
     2
 40
16.
 49
16.
 49
0.
  0
LTYPE
  2
HYDRAULIKOEL
 70
     0
  3
 
 72
    65
 73
     2
 40
16.
 49
16.
 49
0.
  0
LTYPE
  2
MOTOROEL
 70
     0
  3
 
 72
    65
 73
     2
 40
16.
 49
16.
 49
0.
  0
LTYPE
  2
NORMALSPUELOEL
 70
     0
  3
 
 72
    65
 73
     2
 40
16.
 49
16.
 49
0.
  0
LTYPE
  2
RAEUMOEL
 70
     0
  3
 
 72
    65
 73
     2
 40
16.
 49
16.
 49
0.
  0
LTYPE
  2
SCHLEIFOEL
 70
     0
  3
 
 72
    65
 73
     2
 40
16.
 49
16.
 49
0.
  0
LTYPE
  2
SCHNEIDOEL
 70
     0
  3
 
 72
    65
 73
     2
 40
16.
 49
16.
 49
0.
  0
LTYPE
  2
SONDERSPUELOEL
 70
     0
  3
 
 72
    65
 73
     2
 40
16.
 49
16.
 49
0.
  0
LTYPE
  2
ZIEHOEL
 70
     0
  3
 
 72
    65
 73
     2
 40
16.
 49
16.
 49
0.
  0
LTYPE
  2
MONTAGEOEL
 70
     0
  3
 
 72
    65
 73
     2
 40
16.
 49
16.
 49
0.
  0
LTYPE
  2
MONTAGE-GLEITOEL
 70
     0
  3
 
 72
    65
 73
     2
 40
16.
 49
16.
 49
0.
  0
LTYPE
  2
SPUELOEL
 70
     0
  3
 
 72
    65
 73
     2
 40
16.
 49
16.
 49
0.
  0
LTYPE
  2
TIEFBOHROEL
 70
     0
  3
 
 72
    65
 73
     2
 40
16.
 49
16.
 49
0.
  0
LTYPE
  2
AMIN
 70
     0
  3
 
 72
    65
 73
     2
 40
16.
 49
16.
 49
0.
  0
LTYPE
  2
HAERTER
 70
     0
  3
 
 72
    65
 73
     2
 40
16.
 49
16.
 49
0.
  0
LTYPE
  2
HARZ
 70
     0
  3
 
 72
    65
 73
     2
 40
16.
 49
16.
 49
0.
  0
LTYPE
  2
LOESEMITTEL
 70
     0
  3
 
 72
    65
 73
     2
 40
16.
 49
16.
 49
0.
  0
LTYPE
  2
LACK
 70
     0
  3
 
 72
    65
 73
     2
 40
16.
 49
16.
 49
0.
  0
LTYPE
  2
WASCHWASSER
 70
     0
  3
 
 72
    65
 73
     2
 40
16.
 49
16.
 49
0.
  0
LTYPE
  2
GLEITSCHLEIFWASSER
 70
     0
  3
 
 72
    65
 73
     2
 40
16.
 49
16.
 49
0.
  0
LTYPE
  2
VERDUENNUNG
 70
     0
  3
 
 72
    65
 73
     2
 40
16.
 49
16.
 49
0.
  0
LTYPE
  2
KUEHLDECKEN-VORLAUF
 70
     0
  3
 
 72
    65
 73
     2
 40
16.
 49
16.
 49
0.
  0
LTYPE
  2
KUEHLDECKEN-RUECKLAUF
 70
     0
  3
 
 72
    65
 73
     2
 40
5.
 49
4.063
 49
-0.938
  0
LTYPE
  2
KONDENSAT
 70
     0
  3
 
 72
    65
 73
     2
 40
16.
 49
16.
 49
0.
  0
LTYPE
  2
KONDENSAT-REINDAMPF
 70
     0
  3
 
 72
    65
 73
     2
 40
16.
 49
16.
 49
0.
  0
LTYPE
  2
KONDENSAT-HOCHDRUCK
 70
     0
  3
 
 72
    65
 73
     2
 40
16.
 49
16.
 49
0.
  0
LTYPE
  2
DAMPF
 70
     0
  3
 
 72
    65
 73
     2
 40
16.
 49
16.
 49
0.
  0
LTYPE
  2
REINDAMPF
 70
     0
  3
 
 72
    65
 73
     2
 40
16.
 49
16.
 49
0.
  0
LTYPE
  2
DAMPF-HOCHDRUCK
 70
     0
  3
 
 72
    65
 73
     2
 40
16.
 49
16.
 49
0.
  0
LTYPE
  2
KLIMA-ZENTRALE
 70
     0
  3
 
 72
    65
 73
     2
 40
16.
 49
16.
 49
0.
  0
LTYPE
  2
KLIMA-AUSSENLUFT
 70
     0
  3
 
 72
    65
 73
     4
 40
13.
 49
9.34
 49
-1.22
 49
1.22
 49
-1.22
  0
LTYPE
  2
KLIMA-ZULUFT-I
 70
     0
  3
 
 72
    65
 73
     2
 40
16.
 49
16.
 49
0.
  0
LTYPE
  2
KLIMA-ZULUFT-II
 70
     0
  3
 
 72
    65
 73
     2
 40
16.
 49
16.
 49
0.
  0
LTYPE
  2
KLIMA-ZULUFT-III
 70
     0
  3
 
 72
    65
 73
     2
 40
16.
 49
16.
 49
0.
  0
LTYPE
  2
KLIMA-ZULUFT-IV
 70
     0
  3
 
 72
    65
 73
     2
 40
16.
 49
16.
 49
0.
  0
LTYPE
  2
KLIMA-UMLUFT
 70
     0
  3
 
 72
    65
 73
     2
 40
5.
 49
4.063
 49
-0.938
  0
LTYPE
  2
KLIMA-MISCHLUFT
 70
     0
  3
 
 72
    65
 73
     6
 40
11.
 49
3.78
 49
-1.03
 49
3.78
 49
-1.03
 49
0.34
 49
-1.03
  0
LTYPE
  2
KLIMA-ABLUFT
 70
     0
  3
 
 72
    65
 73
     2
 40
5.
 49
4.063
 49
-0.938
  0
LTYPE
  2
KLIMA-FORTLUFT
 70
     0
  3
 
 72
    65
 73
     2
 40
5.
 49
4.063
 49
-0.938
  0
LTYPE
  2
ENTRAUCHUNG
 70
     0
  3
 
 72
    65
 73
     2
 40
5.
 49
4.063
 49
-0.938
  0
LTYPE
  2
ELEKTRO-ZENTRALE
 70
     0
  3
 
 72
    65
 73
     2
 40
16.
 49
16.
 49
0.
  0
LTYPE
  2
STROMSCHIENEN
 70
     0
  3
 
 72
    65
 73
     2
 40
16.
 49
16.
 49
0.
  0
LTYPE
  2
ELEKTRO-LEITUNGSFUEHRUNG
 70
     0
  3
 
 72
    65
 73
     2
 40
16.
 49
16.
 49
0.
  0
LTYPE
  2
ELEKTRO-KABELTRAEGER
 70
     0
  3
 
 72
    65
 73
     2
 40
16.
 49
16.
 49
0.
  0
LTYPE
  2
INNENWAND
 70
     0
  3
 
 72
    65
 73
     2
 40
16.
 49
16.
 49
0.
  0
LTYPE
  2
AUSSENWAND
 70
     0
  3
 
 72
    65
 73
     2
 40
16.
 49
16.
 49
0.
  0
LTYPE
  2
ERDBERUEHREND
 70
     0
  3
 
 72
    65
 73
     2
 40
16.
 49
16.
 49
0.
  0
LTYPE
  2
REINWASSER
 70
     0
  3
 
 72
    65
 73
     2
 40
16.
 49
16.
 49
0.
  0
LTYPE
  2
MESSWASSER
 70
     0
  3
 
 72
    65
 73
     2
 40
16.
 49
16.
 49
0.
  0
LTYPE
  2
SCHWALLWASSER
 70
     0
  3
 
 72
    65
 73
     2
 40
16.
 49
16.
 49
0.
  0
LTYPE
  2
SCHLAMMWASSER
 70
     0
  3
 
 72
    65
 73
     2
 40
16.
 49
16.
 49
0.
  0
LTYPE
  2
ERSTFILTRAT
 70
     0
  3
 
 72
    65
 73
     2
 40
16.
 49
16.
 49
0.
  0
LTYPE
  2
FILTRAT
 70
     0
  3
 
 72
    65
 73
     2
 40
16.
 49
16.
 49
0.
  0
LTYPE
  2
SOLE-FILTRAT
 70
     0
  3
 
 72
    65
 73
     2
 40
16.
 49
16.
 49
0.
  0
LTYPE
  2
SOLE-REINWASSER
 70
     0
  3
 
 72
    65
 73
     2
 40
16.
 49
16.
 49
0.
  0
LTYPE
  2
SOLE-ROHWASSER
 70
     0
  3
 
 72
    65
 73
     2
 40
16.
 49
16.
 49
0.
  0
LTYPE
  2
SPUELWASSER
 70
     0
  3
 
 72
    65
 73
     2
 40
16.
 49
16.
 49
0.
  0
LTYPE
  2
SPUELLUFT
 70
     0
  3
 
 72
    65
 73
     2
 40
16.
 49
16.
 49
0.
  0
LTYPE
  2
CHLORLOESUNG
 70
     0
  3
 
 72
    65
 73
     2
 40
16.
 49
16.
 49
0.
  0
LTYPE
  2
PH-LOESUNG
 70
     0
  3
 
 72
    65
 73
     2
 40
16.
 49
16.
 49
0.
  0
LTYPE
  2
FLOCKUNGSMITTEL
 70
     0
  3
 
 72
    65
 73
     2
 40
16.
 49
16.
 49
0.
  0
LTYPE
  2
SEEWASSER--KALT
 70
     0
  3
 
 72
    65
 73
     2
 40
16.
 49
16.
 49
0.
  0
LTYPE
  2
SEEWASSER--WARM
 70
     0
  3
 
 72
    65
 73
     2
 40
5.
 49
4.063
 49
-0.938
  0
LTYPE
  2
SEEWASSER--ZIRKULATION
 70
     0
  3
 
 72
    65
 73
     4
 40
13.
 49
9.34
 49
-1.22
 49
1.22
 49
-1.22
  0
ENDTAB
  0
TABLE
  2
LAYER
 70
     1
  0
LAYER
  2
0
 62
     7
  6
AUSGEZOGEN
 70
    64
  0
ENDTAB
  0
TABLE
  2
STYLE
 70
    23
  0
STYLE
  2
STANDARD
 70
     0
 40
     0
 41
       1.000000
 50
       0.000000
 71
     0
 42
       3.500000
  3
isocp
  4

  0
STYLE
  2
DIN-6776
 70
     0
 40
     0
 41
       1.000000
 50
       0.000000
 71
     0
 42
       3.500000
  3
isocp
  4

  0
STYLE
  2
ROMAN
 70
     0
 40
     0
 41
       1.000000
 50
       0.000000
 71
     0
 42
       3.500000
  3
romans.shx
  4

  0
STYLE
  2
SCRIPT
 70
     0
 40
     0
 41
       1.000000
 50
       0.000000
 71
     0
 42
       3.500000
  3
scripts.shx
  4

  0
STYLE
  2
GRIECHISCH
 70
     0
 40
     0
 41
       1.000000
 50
       0.000000
 71
     0
 42
       3.500000
  3
greeks.shx
  4

  0
STYLE
  2
KYRILLISCH
 70
     0
 40
     0
 41
       1.000000
 50
       0.000000
 71
     0
 42
       3.500000
  3
cyrillic.shx
  4

  0
STYLE
  2
MATH--FORMELZEICHEN
 70
     0
 40
     0
 41
       1.000000
 50
       0.000000
 71
     0
 42
       3.500000
  3
symath.shx
  4

  0
STYLE
  2
DOPPELLINIE
 70
     0
 40
     0
 41
       1.000000
 50
       0.000000
 71
     0
 42
       3.500000
  3
swissko.ttf
  4

  0
STYLE
  2
SERIFENSCHRIFT
 70
     0
 40
     0
 41
       1.000000
 50
       0.000000
 71
     0
 42
       3.500000
  3
romanc__.ttf
  4

  0
STYLE
  2
ARIAL
 70
     0
 40
     0
 41
       1.000000
 50
       0.000000
 71
     0
 42
       3.500000
  3
arial.ttf
  4

  0
STYLE
  2
ARIAL-FETT
 70
     0
 40
     0
 41
       1.000000
 50
       0.000000
 71
     0
 42
       3.500000
  3
arialbd.ttf
  4

  0
STYLE
  2
TIMES-NEW-ROMAN
 70
     0
 40
     0
 41
       1.000000
 50
       0.000000
 71
     0
 42
       3.500000
  3
times.ttf
  4

  0
STYLE
  2
TIMES-NEW-ROMAN-FETT
 70
     0
 40
     0
 41
       1.000000
 50
       0.000000
 71
     0
 42
       3.500000
  3
timesbd.ttf
  4

  0
STYLE
  2
DIN-6776-OSTEUROPA
 70
     0
 40
     0
 41
       1.000000
 50
       0.000000
 71
     0
 42
       3.500000
  3
txt
  4

  0
STYLE
  2
DIN-6776-KYRILLISCH
 70
     0
 40
     0
 41
       1.000000
 50
       0.000000
 71
     0
 42
       3.500000
  3
txt
  4

  0
STYLE
  2
ARIAL-OSTEUROPA
 70
     0
 40
     0
 41
       1.000000
 50
       0.000000
 71
     0
 42
       3.500000
  3
arial.ttf
  4

  0
STYLE
  2
ARIAL-KYRILLISCH
 70
     0
 40
     0
 41
       1.000000
 50
       0.000000
 71
     0
 42
       3.500000
  3
arial.ttf
  4

  0
STYLE
  2
ARIAL-FETT-OSTEUROPA
 70
     0
 40
     0
 41
       1.000000
 50
       0.000000
 71
     0
 42
       3.500000
  3
arialbd.ttf
  4

  0
STYLE
  2
ARIAL-FETT-KYRILLISCH
 70
     0
 40
     0
 41
       1.000000
 50
       0.000000
 71
     0
 42
       3.500000
  3
arialbd.ttf
  4

  0
STYLE
  2
TIMES-N-R-OSTEUROPA
 70
     0
 40
     0
 41
       1.000000
 50
       0.000000
 71
     0
 42
       3.500000
  3
times.ttf
  4

  0
STYLE
  2
TIMES-N-R-KYRILLISCH
 70
     0
 40
     0
 41
       1.000000
 50
       0.000000
 71
     0
 42
       3.500000
  3
times.ttf
  4

  0
STYLE
  2
TIMES-N-R-FETT-OSTEUROPA
 70
     0
 40
     0
 41
       1.000000
 50
       0.000000
 71
     0
 42
       3.500000
  3
timesbd.ttf
  4

  0
STYLE
  2
TIMES-N-R-FETT-KYRILLISCH
 70
     0
 40
     0
 41
       1.000000
 50
       0.000000
 71
     0
 42
       3.500000
  3
timesbd.ttf
  4

  0
ENDTAB
  0
TABLE
  2
VIEW
 70
     0
  0
ENDTAB
  0
TABLE
  2
VPORT
 70
     2
  0
VPORT
  2
*ACTIVE
 70
     0
 10
       0.000000
 20
       0.000000
 11
       1.000000
 21
       1.000000
 12
    1611.970581
 22
    1001.308472
 13
       0.000000
 23
       0.000000
 14
       1.000000
 24
       1.000000
 15
       0.000000
 25
       0.000000
 16
       0.000000
 26
       0.000000
 36
       1.000000
 17
       0.000000
 27
       0.000000
 37
       0.000000
 40
    2002.616943
 41
       1.609864
 42
      50.000000
 43
       0.000000
 44
       0.000000
 50
       0.000000
 51
       0.000000
 71
     0
 72
   100
 73
     1
 74
     1
 75
     0
 76
     0
 77
     0
 78
     0
  0
ENDTAB
  0
TABLE
  2
DIMSTYLE
 70
     1
  0
DIMSTYLE
  2
STDBEM
 70
     0
  3

  4

  5

  6

  7

 40
       1.000000
 41
       3.500000
 42
       0.100000
 43
       7.000000
 44
       1.800000
 45
       0.000000
 46
       0.000000
 47
       0.000000
 48
       0.000000
140
       3.500000
141
       1.500000
142
       0.000000
143
      25.400000
144
       1.000000
145
       0.000000
146
       1.000000
147
       0.090000
 71
     0
 72
     0
 73
     0
 74
     0
 75
     0
 76
     0
 77
     1
 78
     0
170
     0
171
     2
172
     0
173
     0
174
     0
175
     0
176
     0
177
     0
178
     0
  0
ENDTAB
  0
ENDSEC
  0
SECTION
  2
BLOCKS
  0
ENDSEC
  0
SECTION
  2
ENTITIES
  0
ARC
  8
0
  6
HILFSLINIE
 62
     8
 10
     621.279419
 20
     538.857361
 40
     171.499954
 50
      90.000000
 51
     270.000000
  0
ARC
  8
0
  6
HILFSLINIE
 62
     8
 10
    1310.740112
 20
     538.857361
 40
     171.499954
 50
     270.000000
 51
      90.000000
  0
ARC
  8
0
  6
HILFSLINIE
 62
     8
 10
     966.009766
 20
    -356.240051
 40
    1999.999390
 50
      73.118835
 51
     106.881157
  0
ARC
  8
0
  6
HILFSLINIE
 62
     8
 10
     966.009766
 20
    -286.240082
 40
    1999.999390
 50
      72.091362
 51
     107.908630
  0
LINE
  8
0
  6
HILFSLINIE
 62
     8
 10
    1310.740112
 20
     710.357300
 11
     621.279419
 21
     710.357300
  0
LINE
  8
0
  6
HILFSLINIE
 62
     8
 10
    1310.740112
 20
     367.357391
 11
     621.279419
 21
     367.357391
  0
LINE
  8
0
  6
HILFSLINIE
 62
     8
 10
     966.009766
 20
    1506.452759
 11
     403.685730
 21
    1521.177368
  0
LINE
  8
0
  6
HILFSLINIE
 62
     8
 10
    1528.333862
 20
    1521.177368
 11
     966.009766
 21
    1506.452759
  0
LINE
  8
0
  6
HILFSLINIE
 62
     8
 10
    3192.333252
 20
     521.255798
 11
    1965.665771
 21
     521.257751
  0
CIRCLE
  8
0
  6
HILFSLINIE
 62
     8
 10
     966.009766
 20
     538.857361
 40
      44.999985
  0
LINE
  8
0
  6
MITTELLINIE
 62
     8
 10
     966.009766
 20
     932.857239
 11
     966.009766
 21
     144.857452
  0
LINE
  8
0
  6
MITTELLINIE
 62
     8
 10
    1892.109131
 20
     538.857361
 11
      31.609657
 21
     538.857361
  0
LINE
  8
0
  6
MITTELLINIE
 62
     8
 10
     931.625000
 20
     870.857239
 11
    1000.394531
 21
     870.857239
  0
LINE
  8
0
  6
MITTELLINIE
 62
     8
 10
     966.009766
 20
    1413.452759
 11
     966.009766
 21
    1863.755371
  0
LINE
  8
0
  6
MITTELLINIE
 62
     8
 10
     929.609375
 20
    1793.755371
 11
    1002.410156
 21
    1793.755371
  0
LINE
  8
0
  6
MITTELLINIE
 62
     8
 10
    2616.011230
 20
    1863.755371
 11
    2616.011230
 21
    1413.452759
  0
LINE
  8
0
  6
MITTELLINIE
 62
     8
 10
    2266.011230
 20
    1793.755371
 11
    2295.030762
 21
    1793.755371
  0
LINE
  8
0
 10
     516.009888
 20
     816.538879
 11
    1416.009644
 21
     816.538879
  0
LINE
  8
0
 10
     466.009918
 20
     878.857239
 11
    1466.009644
 21
     878.857239
  0
LINE
  8
0
 10
     466.009918
 20
     198.857437
 11
    1466.009644
 21
     198.857437
  0
LINE
  8
0
 10
     516.009888
 20
     261.177734
 11
    1416.009644
 21
     261.177734
  0
LINE
  8
0
 10
    1622.167725
 20
     138.857452
 11
     309.851776
 21
     138.857452
  0
LINE
  8
0
 10
    1622.167725
 20
     938.857239
 11
     309.851776
 21
     938.857239
  0
LINE
  8
0
 10
      72.746361
 20
     366.435516
 11
     293.588104
 21
     145.593781
  0
LINE
  8
0
 10
     293.588104
 20
     932.120911
 11
      72.746361
 21
     711.279175
  0
LINE
  8
0
 10
      66.010040
 20
     695.015503
 11
      66.010040
 21
     382.699188
  0
LINE
  8
0
 10
    1859.273193
 20
     366.435516
 11
    1638.431396
 21
     145.593781
  0
LINE
  8
0
 10
    1638.431396
 20
     932.120911
 11
    1859.273193
 21
     711.279175
  0
LINE
  8
0
 10
    1866.009521
 20
     695.015503
 11
    1866.009521
 21
     382.699188
  0
LINE
  8
0
 10
      72.010033
 20
    1863.755371
 11
    1860.009521
 21
    1863.755371
  0
LINE
  8
0
 10
    1005.273438
 20
    1444.782837
 11
    1482.244019
 21
    1457.273071
  0
LINE
  8
0
 10
      66.010040
 20
    1837.755371
 11
      66.010040
 21
    1857.755371
  0
LINE
  8
0
 10
      72.010033
 20
    1831.755371
 11
    1860.009521
 21
    1831.755371
  0
LINE
  8
0
 10
     940.009766
 20
    1433.452759
 11
     940.009766
 21
    1436.452759
  0
LINE
  8
0
 10
     992.009766
 20
    1433.452759
 11
     992.009766
 21
    1436.452759
  0
LINE
  8
0
 10
     926.742188
 20
    1444.782837
 11
     449.775543
 21
    1457.273071
  0
LINE
  8
0
 10
     936.818359
 20
    1433.452759
 11
     995.201172
 21
    1433.452759
  0
LINE
  8
0
 10
     936.818359
 20
    1436.452759
 11
     995.201172
 21
    1436.452759
  0
LINE
  8
0
 10
    1866.009521
 20
    1837.755371
 11
    1866.009521
 21
    1857.755371
  0
LINE
  8
0
 10
    2222.011230
 20
    1863.755371
 11
    3010.011230
 21
    1863.755371
  0
LINE
  8
0
 10
    2216.011230
 20
    1857.755371
 11
    2216.011230
 21
    1837.755371
  0
LINE
  8
0
 10
    3016.011230
 20
    1857.755371
 11
    3016.011230
 21
    1837.755371
  0
LINE
  8
0
 10
    3010.011230
 20
    1831.755371
 11
    2222.011230
 21
    1831.755371
  0
LINE
  8
0
 10
    2905.046387
 20
    1677.892212
 11
    2921.087402
 21
    1687.915649
  0
LINE
  8
0
 10
    2326.978027
 20
    1677.892212
 11
    2310.935059
 21
    1687.915649
  0
LINE
  8
0
 10
    2589.687012
 20
    1433.452759
 11
    2589.687012
 21
    1436.452759
  0
LINE
  8
0
 10
    2645.712402
 20
    1436.452759
 11
    2586.312012
 21
    1436.452759
  0
LINE
  8
0
 10
    2642.337402
 20
    1433.452759
 11
    2642.337402
 21
    1436.452759
  0
LINE
  8
0
 10
    2645.712402
 20
    1433.452759
 11
    2586.312012
 21
    1433.452759
  0
ARC
  8
0
 10
     516.009888
 20
     516.539001
 40
     299.999908
 50
      90.000000
 51
     123.357132
  0
ARC
  8
0
 10
     466.009918
 20
     538.857361
 40
     339.999908
 50
      90.000000
 51
     270.000000
  0
ARC
  8
0
 10
    1466.009644
 20
     538.857361
 40
     339.999908
 50
     270.000000
 51
      90.000000
  0
ARC
  8
0
 10
     516.009888
 20
     561.177673
 40
     299.999908
 50
     236.642853
 51
     270.000000
  0
ARC
  8
0
 10
    1416.009644
 20
     516.539001
 40
     299.999908
 50
      56.642849
 51
      90.000000
  0
ARC
  8
0
 10
    1416.009644
 20
     561.177673
 40
     299.999908
 50
     270.000000
 51
     303.357147
  0
ARC
  8
0
 10
     309.851776
 20
     915.857239
 40
      22.999992
 50
      90.000000
 51
     135.000000
  0
ARC
  8
0
 10
     309.851776
 20
     161.857452
 40
      22.999992
 50
     224.999985
 51
     270.000000
  0
ARC
  8
0
 10
      89.010033
 20
     695.015503
 40
      22.999992
 50
     135.000000
 51
     180.000000
  0
ARC
  8
0
 10
      89.010033
 20
     382.699188
 40
      22.999992
 50
     180.000000
 51
     224.999985
  0
ARC
  8
0
 10
    1622.167725
 20
     915.857239
 40
      22.999992
 50
      45.000000
 51
      90.000000
  0
ARC
  8
0
 10
    1622.167725
 20
     161.857452
 40
      22.999992
 50
     270.000000
 51
     314.999969
  0
ARC
  8
0
 10
    1843.009521
 20
     695.015503
 40
      22.999992
 50
       0.000000
 51
      45.000000
  0
ARC
  8
0
 10
    1843.009521
 20
     382.699188
 40
      22.999992
 50
     314.999969
 51
       0.000000
  0
ARC
  8
0
 10
    2099.825928
 20
    2835.374023
 40
    2199.999268
 50
     207.141556
 51
     216.944611
  0
ARC
  8
0
 10
      72.010033
 20
    1837.755371
 40
       5.999998
 50
     180.000000
 51
     270.000000
  0
ARC
  8
0
 10
      72.010033
 20
    1857.755371
 40
       5.999998
 50
      90.000000
 51
     180.000000
  0
ARC
  8
0
 10
     936.818359
 20
    1441.452759
 40
       4.999999
 50
     210.211319
 51
     270.000000
  0
ARC
  8
0
 10
     995.201172
 20
    1441.452759
 40
       4.999999
 50
     270.000000
 51
     329.788666
  0
ARC
  8
0
 10
     936.818359
 20
    1441.452759
 40
       7.999998
 50
     210.196014
 51
     270.000000
  0
ARC
  8
0
 10
     922.126953
 20
    1432.901978
 40
       8.999997
 50
      30.204519
 51
      88.507614
  0
ARC
  8
0
 10
     995.201172
 20
    1441.452759
 40
       7.999998
 50
     270.000000
 51
     329.803986
  0
ARC
  8
0
 10
    1009.892578
 20
    1432.901978
 40
       8.999997
 50
      91.492386
 51
     149.795471
  0
ARC
  8
0
 10
     966.007812
 20
    2944.268555
 40
    1499.999512
 50
     268.499969
 51
     271.500000
  0
ARC
  8
0
 10
    1009.892578
 20
    1432.901978
 40
      11.999996
 50
      91.501549
 51
     149.803986
  0
ARC
  8
0
 10
     922.126953
 20
    1432.901978
 40
      11.999996
 50
      30.196020
 51
      88.498451
  0
ARC
  8
0
 10
    -167.806305
 20
    2835.374023
 40
    2199.999268
 50
     323.055359
 51
     332.858429
  0
ARC
  8
0
 10
    1860.009521
 20
    1837.755371
 40
       5.999998
 50
     270.000000
 51
       0.000000
  0
ARC
  8
0
 10
    1860.009521
 20
    1857.755371
 40
       5.999998
 50
       0.000000
 51
      90.000000
  0
ARC
  8
0
 10
     966.009766
 20
    -322.101379
 40
    1999.999390
 50
      72.617226
 51
     107.382774
  0
ARC
  8
0
 10
     966.009766
 20
    -312.040833
 40
    1999.999390
 50
      72.469597
 51
     107.530396
  0
ARC
  8
0
 10
    1478.579956
 20
    1597.226196
 40
     139.999954
 50
     271.499725
 51
     323.055298
  0
ARC
  8
0
 10
     453.439606
 20
    1597.226196
 40
     139.999954
 50
     216.944717
 51
     268.500275
  0
ARC
  8
0
 10
   -1022.100952
 20
    2281.868652
 40
    3999.998779
 50
     351.818268
 51
     353.538910
  0
ARC
  8
0
 10
    3010.011230
 20
    1837.755371
 40
       5.999998
 50
     270.000000
 51
       0.000000
  0
ARC
  8
0
 10
    3010.011230
 20
    1857.755371
 40
       5.999998
 50
       0.000000
 51
      90.000000
  0
ARC
  8
0
 10
    2222.011230
 20
    1837.755371
 40
       5.999998
 50
     180.000000
 51
     270.000000
  0
ARC
  8
0
 10
    2222.011230
 20
    1857.755371
 40
       5.999998
 50
      90.000000
 51
     180.000000
  0
ARC
  8
0
 10
    2985.470215
 20
    1628.302368
 40
      99.999969
 50
     162.165588
 51
     170.827072
  0
ARC
  8
0
 10
    2902.540527
 20
    1717.597168
 40
      34.999989
 50
     301.999725
 51
     351.819244
  0
ARC
  8
0
 10
    2923.593262
 20
    1648.210571
 40
      34.999989
 50
     121.999619
 51
     162.166656
  0
ARC
  8
0
 10
   -1062.100952
 20
    2281.868652
 40
    3999.998779
 50
     348.962219
 51
     350.827545
  0
ARC
  8
0
 10
    2308.431152
 20
    1648.210571
 40
      34.999989
 50
      17.833347
 51
      58.000374
  0
ARC
  8
0
 10
    2329.481934
 20
    1717.597168
 40
      34.999989
 50
     188.180740
 51
     238.000259
  0
ARC
  8
0
 10
    6254.123535
 20
    2281.868652
 40
    3999.998779
 50
     186.461090
 51
     188.181702
  0
ARC
  8
0
 10
    6294.123535
 20
    2281.868652
 40
    3999.998779
 50
     189.172440
 51
     191.131866
  0
ARC
  8
0
 10
    2246.552246
 20
    1628.302368
 40
      99.999969
 50
       9.172931
 51
      17.834412
  0
ARC
  8
0
 10
    2785.382324
 20
    1531.360962
 40
      79.999977
 50
     271.499725
 51
     348.962189
  0
ARC
  8
0
 10
    2447.878418
 20
    1525.042603
 40
      79.999977
 50
     191.131882
 51
     268.500275
  0
ARC
  8
0
 10
    2586.312012
 20
    1441.452759
 40
       7.999998
 50
     212.820953
 51
     270.000000
  0
ARC
  8
0
 10
    2586.312012
 20
    1441.452759
 40
       4.999999
 50
     212.833389
 51
     270.000000
  0
ARC
  8
0
 10
    2572.028809
 20
    1432.235962
 40
      11.999996
 50
      32.833847
 51
      88.750374
  0
ARC
  8
0
 10
    2572.028809
 20
    1432.235962
 40
       8.999997
 50
      32.845058
 51
      88.756523
  0
ARC
  8
0
 10
    2645.712402
 20
    1441.452759
 40
       7.999998
 50
     270.000000
 51
     327.167267
  0
ARC
  8
0
 10
    2645.712402
 20
    1441.452759
 40
       4.999999
 50
     270.000000
 51
     327.166595
  0
ARC
  8
0
 10
    2659.995605
 20
    1432.235962
 40
      11.999996
 50
      91.249619
 51
     147.171204
  0
ARC
  8
0
 10
    2659.995605
 20
    1432.235962
 40
       8.999997
 50
      91.255898
 51
     147.161682
  0
ARC
  8
0
 10
    2563.968262
 20
    4341.824707
 40
    2899.172607
 50
     267.639954
 51
     274.504547
  0
POLYLINE
  8
0
 66
     1
 10
       0.000000
 20
       0.000000
 30
       0.000000
  0
VERTEX
  8
0
 10
     992.009766
 20
     870.857239
 30
       0.000000
  0
VERTEX
  8
0
 10
     991.958984
 20
     871.171692
 30
       0.000000
  0
VERTEX
  8
0
 10
     991.804688
 20
     871.484192
 30
       0.000000
  0
VERTEX
  8
0
 10
     991.548828
 20
     871.794739
 30
       0.000000
  0
VERTEX
  8
0
 10
     991.193359
 20
     872.101379
 30
       0.000000
  0
VERTEX
  8
0
 10
     990.736328
 20
     872.402161
 30
       0.000000
  0
VERTEX
  8
0
 10
     990.183594
 20
     872.699036
 30
       0.000000
  0
VERTEX
  8
0
 10
     989.535156
 20
     872.986145
 30
       0.000000
  0
VERTEX
  8
0
 10
     988.792969
 20
     873.267395
 30
       0.000000
  0
VERTEX
  8
0
 10
     987.962891
 20
     873.536926
 30
       0.000000
  0
VERTEX
  8
0
 10
     987.044922
 20
     873.796692
 30
       0.000000
  0
VERTEX
  8
0
 10
     986.042969
 20
     874.044739
 30
       0.000000
  0
VERTEX
  8
0
 10
     984.962891
 20
     874.281067
 30
       0.000000
  0
VERTEX
  8
0
 10
     983.808594
 20
     874.503723
 30
       0.000000
  0
VERTEX
  8
0
 10
     982.582031
 20
     874.710754
 30
       0.000000
  0
VERTEX
  8
0
 10
     981.292969
 20
     874.902161
 30
       0.000000
  0
VERTEX
  8
0
 10
     979.941406
 20
     875.079895
 30
       0.000000
  0
VERTEX
  8
0
 10
     978.535156
 20
     875.240051
 30
       0.000000
  0
VERTEX
  8
0
 10
     977.080078
 20
     875.382629
 30
       0.000000
  0
VERTEX
  8
0
 10
     975.580078
 20
     875.507629
 30
       0.000000
  0
VERTEX
  8
0
 10
     974.044922
 20
     875.613098
 30
       0.000000
  0
VERTEX
  8
0
 10
     972.476562
 20
     875.700989
 30
       0.000000
  0
VERTEX
  8
0
 10
     970.880859
 20
     875.769348
 30
       0.000000
  0
VERTEX
  8
0
 10
     969.267578
 20
     875.818176
 30
       0.000000
  0
VERTEX
  8
0
 10
     967.642578
 20
     875.847473
 30
       0.000000
  0
VERTEX
  8
0
 10
     966.009766
 20
     875.857239
 30
       0.000000
  0
VERTEX
  8
0
 10
     964.376953
 20
     875.847473
 30
       0.000000
  0
VERTEX
  8
0
 10
     962.751953
 20
     875.818176
 30
       0.000000
  0
VERTEX
  8
0
 10
     961.138672
 20
     875.769348
 30
       0.000000
  0
VERTEX
  8
0
 10
     959.542969
 20
     875.700989
 30
       0.000000
  0
VERTEX
  8
0
 10
     957.974609
 20
     875.613098
 30
       0.000000
  0
VERTEX
  8
0
 10
     956.439453
 20
     875.507629
 30
       0.000000
  0
VERTEX
  8
0
 10
     954.939453
 20
     875.382629
 30
       0.000000
  0
VERTEX
  8
0
 10
     953.484375
 20
     875.240051
 30
       0.000000
  0
VERTEX
  8
0
 10
     952.078125
 20
     875.079895
 30
       0.000000
  0
VERTEX
  8
0
 10
     950.726562
 20
     874.902161
 30
       0.000000
  0
VERTEX
  8
0
 10
     949.437500
 20
     874.710754
 30
       0.000000
  0
VERTEX
  8
0
 10
     948.210938
 20
     874.503723
 30
       0.000000
  0
VERTEX
  8
0
 10
     947.056641
 20
     874.281067
 30
       0.000000
  0
VERTEX
  8
0
 10
     945.976562
 20
     874.044739
 30
       0.000000
  0
VERTEX
  8
0
 10
     944.974609
 20
     873.796692
 30
       0.000000
  0
VERTEX
  8
0
 10
     944.056641
 20
     873.536926
 30
       0.000000
  0
VERTEX
  8
0
 10
     943.226562
 20
     873.267395
 30
       0.000000
  0
VERTEX
  8
0
 10
     942.484375
 20
     872.986145
 30
       0.000000
  0
VERTEX
  8
0
 10
     941.835938
 20
     872.699036
 30
       0.000000
  0
VERTEX
  8
0
 10
     941.283203
 20
     872.402161
 30
       0.000000
  0
VERTEX
  8
0
 10
     940.826172
 20
     872.101379
 30
       0.000000
  0
VERTEX
  8
0
 10
     940.470703
 20
     871.794739
 30
       0.000000
  0
SEQEND
  8
0
  0
POLYLINE
  8
0
 66
     1
 10
       0.000000
 20
       0.000000
 30
       0.000000
  0
VERTEX
  8
0
 10
     940.470703
 20
     871.794739
 30
       0.000000
  0
VERTEX
  8
0
 10
     940.214844
 20
     871.484192
 30
       0.000000
  0
VERTEX
  8
0
 10
     940.060547
 20
     871.171692
 30
       0.000000
  0
VERTEX
  8
0
 10
     940.009766
 20
     870.857239
 30
       0.000000
  0
VERTEX
  8
0
 10
     940.060547
 20
     870.544739
 30
       0.000000
  0
VERTEX
  8
0
 10
     940.214844
 20
     870.230286
 30
       0.000000
  0
VERTEX
  8
0
 10
     940.470703
 20
     869.921692
 30
       0.000000
  0
VERTEX
  8
0
 10
     940.826172
 20
     869.615051
 30
       0.000000
  0
VERTEX
  8
0
 10
     941.283203
 20
     869.312317
 30
       0.000000
  0
VERTEX
  8
0
 10
     941.835938
 20
     869.017395
 30
       0.000000
  0
VERTEX
  8
0
 10
     942.484375
 20
     868.728333
 30
       0.000000
  0
VERTEX
  8
0
 10
     943.226562
 20
     868.449036
 30
       0.000000
  0
VERTEX
  8
0
 10
     944.056641
 20
     868.179504
 30
       0.000000
  0
VERTEX
  8
0
 10
     944.974609
 20
     867.919739
 30
       0.000000
  0
VERTEX
  8
0
 10
     945.976562
 20
     867.671692
 30
       0.000000
  0
VERTEX
  8
0
 10
     947.056641
 20
     867.435364
 30
       0.000000
  0
VERTEX
  8
0
 10
     948.210938
 20
     867.212708
 30
       0.000000
  0
VERTEX
  8
0
 10
     949.437500
 20
     867.005676
 30
       0.000000
  0
VERTEX
  8
0
 10
     950.726562
 20
     866.812317
 30
       0.000000
  0
VERTEX
  8
0
 10
     952.078125
 20
     866.636536
 30
       0.000000
  0
VERTEX
  8
0
 10
     953.484375
 20
     866.476379
 30
       0.000000
  0
VERTEX
  8
0
 10
     954.939453
 20
     866.333801
 30
       0.000000
  0
VERTEX
  8
0
 10
     956.439453
 20
     866.208801
 30
       0.000000
  0
VERTEX
  8
0
 10
     957.974609
 20
     866.103333
 30
       0.000000
  0
VERTEX
  8
0
 10
     959.542969
 20
     866.015442
 30
       0.000000
  0
VERTEX
  8
0
 10
     961.138672
 20
     865.947083
 30
       0.000000
  0
VERTEX
  8
0
 10
     962.751953
 20
     865.898254
 30
       0.000000
  0
VERTEX
  8
0
 10
     964.376953
 20
     865.867004
 30
       0.000000
  0
VERTEX
  8
0
 10
     966.009766
 20
     865.857239
 30
       0.000000
  0
VERTEX
  8
0
 10
     967.642578
 20
     865.867004
 30
       0.000000
  0
VERTEX
  8
0
 10
     969.267578
 20
     865.898254
 30
       0.000000
  0
VERTEX
  8
0
 10
     970.880859
 20
     865.947083
 30
       0.000000
  0
VERTEX
  8
0
 10
     972.476562
 20
     866.015442
 30
       0.000000
  0
VERTEX
  8
0
 10
     974.044922
 20
     866.103333
 30
       0.000000
  0
VERTEX
  8
0
 10
     975.580078
 20
     866.208801
 30
       0.000000
  0
VERTEX
  8
0
 10
     977.080078
 20
     866.333801
 30
       0.000000
  0
VERTEX
  8
0
 10
     978.535156
 20
     866.476379
 30
       0.000000
  0
VERTEX
  8
0
 10
     979.941406
 20
     866.636536
 30
       0.000000
  0
VERTEX
  8
0
 10
     981.292969
 20
     866.812317
 30
       0.000000
  0
VERTEX
  8
0
 10
     982.582031
 20
     867.005676
 30
       0.000000
  0
VERTEX
  8
0
 10
     983.808594
 20
     867.212708
 30
       0.000000
  0
VERTEX
  8
0
 10
     984.962891
 20
     867.435364
 30
       0.000000
  0
VERTEX
  8
0
 10
     986.042969
 20
     867.671692
 30
       0.000000
  0
VERTEX
  8
0
 10
     987.044922
 20
     867.919739
 30
       0.000000
  0
VERTEX
  8
0
 10
     987.962891
 20
     868.179504
 30
       0.000000
  0
VERTEX
  8
0
 10
     988.792969
 20
     868.449036
 30
       0.000000
  0
VERTEX
  8
0
 10
     989.535156
 20
     868.728333
 30
       0.000000
  0
VERTEX
  8
0
 10
     990.183594
 20
     869.017395
 30
       0.000000
  0
SEQEND
  8
0
  0
POLYLINE
  8
0
 66
     1
 10
       0.000000
 20
       0.000000
 30
       0.000000
  0
VERTEX
  8
0
 10
     990.183594
 20
     869.017395
 30
       0.000000
  0
VERTEX
  8
0
 10
     990.736328
 20
     869.312317
 30
       0.000000
  0
VERTEX
  8
0
 10
     991.193359
 20
     869.615051
 30
       0.000000
  0
VERTEX
  8
0
 10
     991.548828
 20
     869.921692
 30
       0.000000
  0
VERTEX
  8
0
 10
     991.804688
 20
     870.230286
 30
       0.000000
  0
VERTEX
  8
0
 10
     991.958984
 20
     870.544739
 30
       0.000000
  0
VERTEX
  8
0
 10
     992.009766
 20
     870.857239
 30
       0.000000
  0
SEQEND
  8
0
  0
CIRCLE
  8
0
 10
     966.009766
 20
     538.857361
 40
      25.999992
  0
CIRCLE
  8
0
 10
     966.009766
 20
    1793.755371
 40
      25.999992
  0
TEXT
  8
0
 10
    2226.313965
 20
     741.958862
 40
      99.999977
 50
       0.000000
 51
       0.000000
 41
       0.746667
  1
VAIODUO-Extra-8
  7
DIN-6776
 72
     5
 11
    2978.313721
 21
     741.958862
  0
TEXT
  8
0
 10
    3015.548340
 20
     387.923798
 40
      66.666649
 50
       0.000000
 51
       0.000000
 41
       0.910000
  1
430
  7
DIN-6776
 72
     5
 11
    3128.215088
 21
     387.923798
  0
TEXT
  8
0
 10
    2682.214355
 20
     387.923798
 40
      66.666649
 50
       0.000000
 51
       0.000000
 41
       0.910000
  1
800
  7
DIN-6776
 72
     5
 11
    2794.881104
 21
     387.923798
  0
TEXT
  8
0
 10
    2348.880371
 20
     387.925751
 40
      66.666649
 50
       0.000000
 51
       0.000000
 41
       0.910000
  1
1800
  7
DIN-6776
 72
     5
 11
    2494.046875
 21
     387.925751
  0
TEXT
  8
0
 10
    2015.548462
 20
     387.925751
 40
      66.666649
 50
       0.000000
 51
       0.000000
 41
       0.910000
  1
953
  7
DIN-6776
 72
     5
 11
    2128.215088
 21
     387.925751
  0
TEXT
  8
0
 10
    3015.548340
 20
     587.923706
 40
      66.666649
 50
       0.000000
 51
       0.000000
 41
       0.910000
  1
Tiefe
  7
DIN-6776
 72
     5
 11
    3182.381592
 21
     587.923706
  0
TEXT
  8
0
 10
    2682.214355
 20
     587.923706
 40
      66.666649
 50
       0.000000
 51
       0.000000
 41
       0.910000
  1
Breite
  7
DIN-6776
 72
     5
 11
    2880.984375
 21
     587.923706
  0
TEXT
  8
0
 10
    2348.882324
 20
     587.925659
 40
      66.666649
 50
       0.000000
 51
       0.000000
 41
       0.910000
  1
Laenge
  7
DIN-6776
 72
     5
 11
    2591.548828
 21
     587.925659
  0
TEXT
  8
0
 10
    2015.548462
 20
     587.925659
 40
      66.666649
 50
       0.000000
 51
       0.000000
 41
       0.910000
  1
Modell
  7
DIN-6776
 72
     5
 11
    2223.548340
 21
     587.925659
  0
ENDSEC
  0
EOF