  0
SECTION
  2
HEADER
  9
$ACADVER
  1
AC1009
  9
$ANGBASE
 50
       0.000000
  9
$ANGDIR
 70
     0
  9
$ATTDIA
 70
     0
  9
$ATTMODE
 70
     0
  9
$ATTREQ
 70
     0
  9
$AUNITS
 70
     0
  9
$AUPREC
 70
     1
  9
$BLIPMODE
 70
     1
  9
$CECOLOR
 62
   256
  9
$CELTYPE
  6
BYLAYER
  9
$CHAMFERA
 40
       0.000000
  9
$CHAMFERB
 40
       0.000000
  9
$CLAYER
  8
0
  9
$COORDS
 70
     1
  9
$DIMALT
 70
     0
  9
$DIMALTD
 70
     2
  9
$DIMALTF
 40
      25.400000
  9
$DIMAPOST
  1

  9
$DIMASO
 70
     0
  9
$DIMASZ
 40
       3.500000
  9
$DIMBLK
  1

  9
$DIMBLK1
  1

  9
$DIMBLK2
  1

  9
$DIMCEN
 40
       1.500000
  9
$DIMCLRD
 70
     0
  9
$DIMCLRE
 70
     0
  9
$DIMCLRT
 70
     0
  9
$DIMDLE
 40
       0.000000
  9
$DIMDLI
 40
       7.000000
  9
$DIMEXE
 40
       1.800000
  9
$DIMEXO
 40
       0.100000
  9
$DIMGAP
 40
       0.090000
  9
$DIMLFAC
 40
       1.000000
  9
$DIMLIM
 70
     0
  9
$DIMPOST
  1

  9
$DIMRND
 40
       0.000000
  9
$DIMSAH
 70
     0
  9
$DIMSCALE
 40
       1.000000
  9
$DIMSE1
 70
     0
  9
$DIMSE2
 70
     0
  9
$DIMSHO
 70
     1
  9
$DIMSOXD
 70
     0
  9
$DIMSTYLE
  2
*UNNAMED
  9
$DIMTAD
 70
     1
  9
$DIMTFAC
 40
       1.000000
  9
$DIMTIH
 70
     0
  9
$DIMTIX
 70
     0
  9
$DIMTM
 40
       0.000000
  9
$DIMTOFL
 70
     0
  9
$DIMTOH
 70
     0
  9
$DIMTOL
 70
     0
  9
$DIMTP
 40
       0.000000
  9
$DIMTSZ
 40
       0.000000
  9
$DIMTVP
 40
       0.000000
  9
$DIMTXT
 40
       3.500000
  9
$DIMZIN
 70
     0
  9
$DRAGMODE
 70
     2
  9
$DWGCODEPAGE
  3
dos850
  9
$ELEVATION
 40
       0.000000
  9
$EXTMAX
 10
    3241.222900
 20
    2400.515625
 30
       0.000000
  9
$EXTMIN
 10
       0.000000
 20
       0.000000
 30
       0.000000
  9
$FILLETRAD
 40
       0.000000
  9
$FILLMODE
 70
     1
  9
$HANDLING
 70
     0
  9
$HANDSEED
  5
0
  9
$INSBASE
 10
       0.000000
 20
       0.000000
 30
       0.000000
  9
$LIMCHECK
 70
     0
  9
$LIMMAX
 10
    3241.222900
 20
    2400.515625
  9
$LIMMIN
 10
       0.000000
 20
       0.000000
  9
$LTSCALE
 40
       1.000000
  9
$LUNITS
 70
     2
  9
$LUPREC
 70
     2
  9
$MAXACTVP
 70
    16
  9
$MENU
  1
ACAD
  9
$MIRRTEXT
 70
     0
  9
$ORTHOMODE
 70
     0
  9
$OSMODE
 70
     0
  9
$PDMODE
 70
     0
  9
$PDSIZE
 40
       0.000000
  9
$PELEVATION
 40
       0.000000
  9
$PEXTMAX
 10
    3241.222900
 20
    2400.515625
 30
       0.000000
  9
$PEXTMIN
 10
       0.000000
 20
       0.000000
 30
       0.000000
  9
$PINSBASE
 10
       0.000000
 20
       0.000000
 30
       0.000000
  9
$PLIMCHECK
 70
     0
  9
$PLIMMAX
 10
    3241.222900
 20
    2400.515625
  9
$PLIMMIN
 10
       0.000000
 20
       0.000000
  9
$PLINEGEN
 70
     0
  9
$PLINEWID
 40
       0.000000
  9
$PSLTSCALE
 70
     1
  9
$PUCSNAME
  2

  9
$PUCSORG
 10
       0.000000
 20
       0.000000
 30
       0.000000
  9
$PUCSXDIR
 10
       1.000000
 20
       0.000000
 30
       0.000000
  9
$PUCSYDIR
 10
       0.000000
 20
       1.000000
 30
       0.000000
  9
$QTEXTMODE
 70
     0
  9
$REGENMODE
 70
     1
  9
$SHADEDGE
 70
     3
  9
$SHADEDIF
 70
    70
  9
$SKETCHINC
 40
       1.000000
  9
$SKPOLY
 70
     0
  9
$SPLFRAME
 70
     0
  9
$SPLINESEGS
 70
     8
  9
$SPLINETYPE
 70
     6
  9
$SURFTAB1
 70
     6
  9
$SURFTAB2
 70
     6
  9
$SURFTYPE
 70
     6
  9
$SURFU
 70
     6
  9
$SURFV
 70
     6
  9
$TDCREATE
 40
2453461.5694444445
  9
$TDINDWG
 40
       0.000000
  9
$TDUPDATE
 40
2453461.5694444445
  9
$TDUSRTIMER
 40
       0.000000
  9
$TEXTSIZE
 40
       3.500000
  9
$TEXTSTYLE
  7
STANDARD
  9
$THICKNESS
 40
       0.000000
  9
$TILEMODE
 70
     1
  9
$TRACEWID
 40
       1.000000
  9
$TREEDEPTH
 70
 -3020
  9
$UCSNAME
  2

  9
$UCSORG
 10
       0.000000
 20
       0.000000
 30
       0.000000
  9
$UCSXDIR
 10
       1.000000
 20
       0.000000
 30
       0.000000
  9
$UCSYDIR
 10
       0.000000
 20
       1.000000
 30
       0.000000
  9
$UNITMODE
 70
     0
  9
$USERI1
 70
     0
  9
$USERI2
 70
     0
  9
$USERI3
 70
     0
  9
$USERI4
 70
     0
  9
$USERI5
 70
     0
  9
$USERR1
 40
       0.000000
  9
$USERR2
 40
       0.000000
  9
$USERR3
 40
       0.000000
  9
$USERR4
 40
       0.000000
  9
$USERR5
 40
       0.000000
  9
$USRTIMER
 70
     0
  9
$VISRETAIN
 70
     0
  9
$WORLDVIEW
 70
     1
  0
ENDSEC
  0
SECTION
  2
TABLES
  0
TABLE
  2
LTYPE
 70
    16
  0
LTYPE
  2
AUSGEZOGEN
 70
     0
  3
________________
 72
    65
 73
     0
 40
       0.000000
  0
LTYPE
  2
VERDECKTE_KANTE
 70
     0
  3
____________
 72
    65
 73
     2
 40
5.
 49
4.
 49
-1.
  0
LTYPE
  2
HILFSLINIE
 70
     0
  3
________________
 72
    65
 73
     0
 40
       0.000000
  0
LTYPE
  2
BRUCHLINIE
 70
     0
  3
________________
 72
    65
 73
     0
 40
       0.000000
  0
LTYPE
  2
MITTELLINIE
 70
     0
  3
__________ _
 72
    65
 73
     4
 40
13.
 49
10.
 49
-1.
 49
1.
 49
-1.
  0
LTYPE
  2
SCHNITTLINIE
 70
     0
  3
__________ _
 72
    65
 73
     4
 40
13.
 49
10.
 49
-1.
 49
1.
 49
-1.
  0
LTYPE
  2
SCHWERLINIE
 70
     0
  3
__________ _ _
 72
    65
 73
     6
 40
15.
 49
10.
 49
-1.
 49
1.
 49
-1.
 49
1.
 49
-1.
  0
LTYPE
  2
ENTWURFSLINIE
 70
     0
  3
_   _   _   _
 72
    65
 73
     8
 40
16.
 49
1.
 49
-3.
 49
1.
 49
-3.
 49
1.
 49
-3.
 49
1.
 49
-3.
  0
LTYPE
  2
SONDERLINIE1
 70
     0
  3
________________
 72
    65
 73
     0
 40
       0.000000
  0
LTYPE
  2
SONDERLINIE2
 70
     0
  3
__________ _ _
 72
    65
 73
     6
 40
15.
 49
10.
 49
-1.
 49
1.
 49
-1.
 49
1.
 49
-1.
  0
LTYPE
  2
SONDERLINIE3
 70
     0
  3
_________ _ _ _
 72
    65
 73
     8
 40
16.
 49
9.
 49
-1.
 49
1.
 49
-1.
 49
1.
 49
-1.
 49
1.
 49
-1.
  0
LTYPE
  2
SONDERLINIE4
 70
     0
  3
_________ _ _ _
 72
    65
 73
     8
 40
16.
 49
9.
 49
-1.
 49
1.
 49
-1.
 49
1.
 49
-1.
 49
1.
 49
-1.
  0
LTYPE
  2
SONDERLINIE5
 70
     0
  3
_______ _ _ _ _
 72
    65
 73
    10
 40
16.
 49
7.
 49
-1.
 49
1.
 49
-1.
 49
1.
 49
-1.
 49
1.
 49
-1.
 49
1.
 49
-1.
  0
LTYPE
  2
SONDERLINIE6
 70
     0
  3
_______ _ _ _ _
 72
    65
 73
    10
 40
16.
 49
7.
 49
-1.
 49
1.
 49
-1.
 49
1.
 49
-1.
 49
1.
 49
-1.
 49
1.
 49
-1.
  0
LTYPE
  2
SONDERLINIE7
 70
     0
  3
_____ _ _ _ _ _
 72
    65
 73
    12
 40
16.
 49
5.
 49
-1.
 49
1.
 49
-1.
 49
1.
 49
-1.
 49
1.
 49
-1.
 49
1.
 49
-1.
 49
1.
 49
-1.
  0
LTYPE
  2
SONDERLINIE8
 70
     0
  3
_____ _ _ _ _ _
 72
    65
 73
    12
 40
16.
 49
5.
 49
-1.
 49
1.
 49
-1.
 49
1.
 49
-1.
 49
1.
 49
-1.
 49
1.
 49
-1.
 49
1.
 49
-1.
  0
ENDTAB
  0
TABLE
  2
LAYER
 70
     1
  0
LAYER
  2
0
 62
     7
  6
AUSGEZOGEN
 70
    64
  0
ENDTAB
  0
TABLE
  2
STYLE
 70
     0
  0
STYLE
  2
STANDARD
 70
     0
 40
     0
 41
       1.000000
 50
       0.000000
 71
     0
 42
       3.500000
  3
isocp
  4

  0
ENDTAB
  0
TABLE
  2
VIEW
 70
     0
  0
ENDTAB
  0
TABLE
  2
VPORT
 70
     2
  0
VPORT
  2
*ACTIVE
 70
     0
 10
       0.000000
 20
       0.000000
 11
       1.000000
 21
       1.000000
 12
    1620.611450
 22
    1200.257812
 13
       0.000000
 23
       0.000000
 14
       1.000000
 24
       1.000000
 15
       0.000000
 25
       0.000000
 16
       0.000000
 26
       0.000000
 36
       1.000000
 17
       0.000000
 27
       0.000000
 37
       0.000000
 40
    2400.515625
 41
       1.350219
 42
      50.000000
 43
       0.000000
 44
       0.000000
 50
       0.000000
 51
       0.000000
 71
     0
 72
   100
 73
     1
 74
     1
 75
     0
 76
     0
 77
     0
 78
     0
  0
ENDTAB
  0
TABLE
  2
DIMSTYLE
 70
     1
  0
DIMSTYLE
  2
STDBEM
 70
     0
  3

  4

  5

  6

  7

 40
       1.000000
 41
       3.500000
 42
       0.100000
 43
       7.000000
 44
       1.800000
 45
       0.000000
 46
       0.000000
 47
       0.000000
 48
       0.000000
140
       3.500000
141
       1.500000
142
       0.000000
143
      25.400000
144
       1.000000
145
       0.000000
146
       1.000000
147
       0.090000
 71
     0
 72
     0
 73
     0
 74
     0
 75
     0
 76
     0
 77
     1
 78
     0
170
     0
171
     2
172
     0
173
     0
174
     0
175
     0
176
     0
177
     0
178
     0
  0
ENDTAB
  0
ENDSEC
  0
SECTION
  2
BLOCKS
  0
ENDSEC
  0
SECTION
  2
ENTITIES
  0
LINE
  8
0
  6
HILFSLINIE
 62
     8
 10
    2022.445312
 20
    1014.321411
 11
    3209.445801
 21
    1014.321411
  0
LINE
  8
0
  6
HILFSLINIE
 62
     8
 10
     552.576721
 20
     587.755066
 11
    1110.976685
 21
     587.755066
  0
LINE
  8
0
  6
HILFSLINIE
 62
     8
 10
      37.776722
 20
     413.255096
 11
      37.776722
 21
    1067.255005
  0
LINE
  8
0
  6
HILFSLINIE
 62
     8
 10
    1608.776733
 20
     396.255096
 11
      54.776722
 21
     396.255096
  0
LINE
  8
0
  6
HILFSLINIE
 62
     8
 10
    1625.776733
 20
    1067.255005
 11
    1625.776733
 21
     413.255096
  0
LINE
  8
0
  6
HILFSLINIE
 62
     8
 10
      54.776722
 20
    1084.255005
 11
    1608.776733
 21
    1084.255005
  0
LINE
  8
0
  6
HILFSLINIE
 62
     8
 10
     380.876801
 20
     437.454315
 11
    1282.676636
 21
     437.454315
  0
LINE
  8
0
  6
HILFSLINIE
 62
     8
 10
     380.876801
 20
    1043.055786
 11
    1282.676636
 21
    1043.055786
  0
LINE
  8
0
  6
HILFSLINIE
 62
     8
 10
     552.576721
 20
     892.755066
 11
    1110.976685
 21
     892.755066
  0
ARC
  8
0
  6
HILFSLINIE
 62
     8
 10
    1110.976685
 20
     740.255066
 40
     152.499985
 50
     270.000000
 51
      90.000000
  0
ARC
  8
0
  6
HILFSLINIE
 62
     8
 10
     552.576721
 20
     740.255066
 40
     152.499985
 50
      90.000000
 51
     270.000000
  0
ARC
  8
0
  6
HILFSLINIE
 62
     8
 10
      54.776722
 20
    1067.255005
 40
      16.999998
 50
      90.000000
 51
     180.000000
  0
ARC
  8
0
  6
HILFSLINIE
 62
     8
 10
      54.776722
 20
     413.255096
 40
      16.999998
 50
     180.000000
 51
     270.000000
  0
ARC
  8
0
  6
HILFSLINIE
 62
     8
 10
    1608.776733
 20
     413.255096
 40
      16.999998
 50
     270.000000
 51
       0.000000
  0
ARC
  8
0
  6
HILFSLINIE
 62
     8
 10
    1608.776733
 20
    1067.255005
 40
      16.999998
 50
       0.000000
 51
      90.000000
  0
ARC
  8
0
  6
HILFSLINIE
 62
     8
 10
     380.876801
 20
     740.255066
 40
     302.799957
 50
      90.000000
 51
     270.000000
  0
ARC
  8
0
  6
HILFSLINIE
 62
     8
 10
    1282.676636
 20
     740.255066
 40
     302.799957
 50
     270.000000
 51
      90.000000
  0
CIRCLE
  8
0
  6
HILFSLINIE
 62
     8
 10
     831.776672
 20
     740.255066
 40
      44.999996
  0
LINE
  8
0
  6
MITTELLINIE
 62
     8
 10
    2631.776611
 20
    2010.264771
 11
    2631.776611
 21
    1575.264771
  0
LINE
  8
0
  6
MITTELLINIE
 62
     8
 10
     831.776672
 20
    1563.446411
 11
     831.776672
 21
    2010.255005
  0
LINE
  8
0
  6
MITTELLINIE
 62
     8
 10
     797.391663
 20
    1940.255005
 11
     866.161682
 21
    1940.255005
  0
LINE
  8
0
  6
MITTELLINIE
 62
     8
 10
     797.391907
 20
    1940.255005
 11
     866.161438
 21
    1940.255005
  0
LINE
  8
0
  6
MITTELLINIE
 62
     8
 10
     831.776672
 20
    1563.446411
 11
     831.776672
 21
    2010.255005
  0
LINE
  8
0
  6
MITTELLINIE
 62
     8
 10
    1631.776733
 20
     740.255066
 11
      31.776722
 21
     740.255066
  0
LINE
  8
0
  6
MITTELLINIE
 62
     8
 10
     831.776672
 20
     390.255096
 11
     831.776672
 21
    1090.255005
  0
ARC
  8
0
 10
    2767.778809
 20
    1685.112427
 40
      89.999992
 50
     274.083038
 51
     345.626434
  0
ARC
  8
0
 10
    2495.774414
 20
    1685.112427
 40
      89.999992
 50
     194.373505
 51
     265.916809
  0
ARC
  8
0
 10
     -51.123665
 20
    2407.530518
 40
    2999.999756
 50
     345.625824
 51
     351.773407
  0
ARC
  8
0
 10
    5314.677246
 20
    2407.530518
 40
    2999.999756
 50
     188.226608
 51
     194.374176
  0
ARC
  8
0
 10
    2631.776611
 20
    3590.264893
 40
    1999.999878
 50
     265.916779
 51
     274.083221
  0
ARC
  8
0
 10
    2287.776611
 20
    2004.264771
 40
       6.000000
 50
      86.822754
 51
     180.000000
  0
ARC
  8
0
 10
    2287.776611
 20
    1984.264771
 40
       6.000000
 50
     180.000000
 51
     270.000000
  0
ARC
  8
0
 10
    2975.776855
 20
    2004.264771
 40
       6.000000
 50
       0.000000
 51
      93.181900
  0
ARC
  8
0
 10
    2975.776855
 20
    1984.264771
 40
       6.000000
 50
     270.000000
 51
       0.000000
  0
ARC
  8
0
 10
    2677.165771
 20
    1576.776489
 40
      13.999999
 50
      93.292114
 51
     146.951752
  0
ARC
  8
0
 10
    2658.726562
 20
    1588.774536
 40
       8.000000
 50
     270.000000
 51
     326.947144
  0
ARC
  8
0
 10
    2586.387451
 20
    1576.776489
 40
      13.999999
 50
      33.048244
 51
      86.707878
  0
ARC
  8
0
 10
    2604.826660
 20
    1588.774536
 40
       8.000000
 50
     213.052811
 51
     270.000000
  0
ARC
  8
0
 10
     402.820374
 20
    1706.524536
 40
     104.999992
 50
     218.009491
 51
     268.500031
  0
ARC
  8
0
 10
    1260.733032
 20
    1706.524536
 40
     104.999992
 50
     271.499969
 51
     321.990479
  0
ARC
  8
0
 10
    1625.776733
 20
    1984.255005
 40
       6.000000
 50
     270.000000
 51
       0.000000
  0
ARC
  8
0
 10
    1625.776733
 20
    2004.255005
 40
       6.000000
 50
       0.000000
 51
      93.107391
  0
ARC
  8
0
 10
     877.165833
 20
    1577.446411
 40
      13.999999
 50
      93.292114
 51
     146.951752
  0
ARC
  8
0
 10
     858.726624
 20
    1589.446411
 40
       8.000000
 50
     270.000000
 51
     326.931641
  0
ARC
  8
0
 10
     786.387512
 20
    1577.446411
 40
      13.999999
 50
      33.048244
 51
      86.707878
  0
ARC
  8
0
 10
     804.826721
 20
    1589.446411
 40
       8.000000
 50
     213.068359
 51
     270.000000
  0
ARC
  8
0
 10
      37.776722
 20
    2004.255005
 40
       6.000000
 50
      90.000000
 51
     180.000000
  0
ARC
  8
0
 10
      37.776722
 20
    1984.255005
 40
       6.000000
 50
     180.000000
 51
     270.000000
  0
ARC
  8
0
 10
    1895.913086
 20
    2873.442627
 40
    1999.999878
 50
     206.589401
 51
     218.009216
  0
ARC
  8
0
 10
    -232.359741
 20
    2873.442627
 40
    1999.999878
 50
     321.990784
 51
     333.410583
  0
ARC
  8
0
 10
     831.776672
 20
    1940.255005
 40
      25.999998
 50
      50.284805
 51
      90.000000
  0
ARC
  8
0
 10
     831.776672
 20
    1940.255005
 40
      25.999998
 50
      90.000000
 51
     129.715195
  0
ARC
  8
0
 10
     831.776672
 20
    1940.255005
 40
      25.999998
 50
     129.715195
 51
      50.284805
  0
ARC
  8
0
 10
     381.776703
 20
     740.255066
 40
     289.999969
 50
      90.000000
 51
     270.000000
  0
ARC
  8
0
 10
    1281.776733
 20
     740.255066
 40
     289.999969
 50
     270.000000
 51
      90.000000
  0
ARC
  8
0
 10
      54.776722
 20
     413.255096
 40
      22.999998
 50
     180.000000
 51
     270.000000
  0
ARC
  8
0
 10
      54.776722
 20
    1067.255005
 40
      22.999998
 50
      90.000000
 51
     180.000000
  0
ARC
  8
0
 10
    1608.776733
 20
    1067.255005
 40
      22.999998
 50
       0.000000
 51
      90.000000
  0
ARC
  8
0
 10
    1608.776733
 20
     413.255096
 40
      22.999998
 50
     270.000000
 51
       0.000000
  0
LINE
  8
0
 10
    2288.109131
 20
    2010.255005
 11
    2975.443848
 21
    2010.255005
  0
LINE
  8
0
 10
    2281.776611
 20
    1984.264771
 11
    2281.776611
 21
    2004.264771
  0
LINE
  8
0
 10
    2975.776855
 20
    1978.264771
 11
    2287.776611
 21
    1978.264771
  0
LINE
  8
0
 10
    2981.776855
 20
    1984.264771
 11
    2981.776855
 21
    2004.264771
  0
LINE
  8
0
 10
    2658.726562
 20
    1580.776489
 11
    2604.826660
 21
    1580.776489
  0
LINE
  8
0
 10
    1631.776733
 20
    2004.255005
 11
    1631.776733
 21
    1984.255005
  0
LINE
  8
0
 10
     858.726624
 20
    1581.444458
 11
     804.826721
 21
    1581.444458
  0
LINE
  8
0
 10
      31.776722
 20
    2004.255005
 11
      31.776722
 21
    1984.255005
  0
LINE
  8
0
 10
    1625.776733
 20
    1978.255005
 11
      37.776722
 21
    1978.255005
  0
LINE
  8
0
 10
     831.776672
 20
    1590.255005
 11
    1263.481567
 21
    1601.559692
  0
LINE
  8
0
 10
     831.776672
 20
    1590.255005
 11
     400.071838
 21
    1601.559692
  0
LINE
  8
0
 10
      37.776722
 20
    2010.255005
 11
    1625.776733
 21
    2010.255005
  0
LINE
  8
0
 10
    1281.776733
 20
     450.255096
 11
     381.776703
 21
     450.255096
  0
LINE
  8
0
 10
     381.776703
 20
    1030.255005
 11
    1281.776733
 21
    1030.255005
  0
LINE
  8
0
 10
      31.776722
 20
     413.255096
 11
      31.776722
 21
    1067.255005
  0
LINE
  8
0
 10
    1608.776733
 20
     390.255096
 11
      54.776722
 21
     390.255096
  0
LINE
  8
0
 10
    1631.776733
 20
    1067.255005
 11
    1631.776733
 21
     413.255096
  0
LINE
  8
0
 10
      54.776722
 20
    1090.255005
 11
    1608.776733
 21
    1090.255005
  0
CIRCLE
  8
0
 10
     831.776672
 20
    1940.255005
 40
      25.999998
  0
CIRCLE
  8
0
 10
     831.776672
 20
     740.255066
 40
      25.999998
  0
POLYLINE
  8
0
 66
     1
 10
       0.000000
 20
       0.000000
 30
       0.000000
  0
VERTEX
  8
0
 10
     805.776672
 20
     458.454315
 30
       0.000000
  0
VERTEX
  8
0
 10
     806.585266
 20
     459.247284
 30
       0.000000
  0
VERTEX
  8
0
 10
     808.626282
 20
     459.911346
 30
       0.000000
  0
VERTEX
  8
0
 10
     811.156555
 20
     460.403534
 30
       0.000000
  0
VERTEX
  8
0
 10
     813.633118
 20
     460.747284
 30
       0.000000
  0
VERTEX
  8
0
 10
     815.823059
 20
     460.981659
 30
       0.000000
  0
VERTEX
  8
0
 10
     817.680969
 20
     461.143768
 30
       0.000000
  0
VERTEX
  8
0
 10
     819.235657
 20
     461.259003
 30
       0.000000
  0
VERTEX
  8
0
 10
     820.537903
 20
     461.341034
 30
       0.000000
  0
VERTEX
  8
0
 10
     821.634583
 20
     461.401581
 30
       0.000000
  0
VERTEX
  8
0
 10
     822.566711
 20
     461.446503
 30
       0.000000
  0
VERTEX
  8
0
 10
     823.366028
 20
     461.483612
 30
       0.000000
  0
VERTEX
  8
0
 10
     824.058899
 20
     461.510956
 30
       0.000000
  0
VERTEX
  8
0
 10
     824.663879
 20
     461.532440
 30
       0.000000
  0
VERTEX
  8
0
 10
     825.197571
 20
     461.551971
 30
       0.000000
  0
VERTEX
  8
0
 10
     825.672180
 20
     461.565643
 30
       0.000000
  0
VERTEX
  8
0
 10
     826.096497
 20
     461.577362
 30
       0.000000
  0
VERTEX
  8
0
 10
     826.479309
 20
     461.587128
 30
       0.000000
  0
VERTEX
  8
0
 10
     826.826477
 20
     461.596893
 30
       0.000000
  0
VERTEX
  8
0
 10
     827.143372
 20
     461.602753
 30
       0.000000
  0
VERTEX
  8
0
 10
     827.433899
 20
     461.610565
 30
       0.000000
  0
VERTEX
  8
0
 10
     827.702454
 20
     461.614471
 30
       0.000000
  0
VERTEX
  8
0
 10
     827.950500
 20
     461.620331
 30
       0.000000
  0
VERTEX
  8
0
 10
     828.181946
 20
     461.624237
 30
       0.000000
  0
VERTEX
  8
0
 10
     828.971985
 20
     461.635956
 30
       0.000000
  0
VERTEX
  8
0
 10
     829.609680
 20
     461.643768
 30
       0.000000
  0
VERTEX
  8
0
 10
     830.393860
 20
     461.649628
 30
       0.000000
  0
VERTEX
  8
0
 10
     831.372375
 20
     461.653534
 30
       0.000000
  0
VERTEX
  8
0
 10
     832.387024
 20
     461.653534
 30
       0.000000
  0
VERTEX
  8
0
 10
     833.531555
 20
     461.647675
 30
       0.000000
  0
VERTEX
  8
0
 10
     834.410461
 20
     461.637909
 30
       0.000000
  0
VERTEX
  8
0
 10
     835.155579
 20
     461.628143
 30
       0.000000
  0
VERTEX
  8
0
 10
     836.119446
 20
     461.610565
 30
       0.000000
  0
VERTEX
  8
0
 10
     836.409973
 20
     461.602753
 30
       0.000000
  0
VERTEX
  8
0
 10
     836.726868
 20
     461.596893
 30
       0.000000
  0
VERTEX
  8
0
 10
     837.074036
 20
     461.587128
 30
       0.000000
  0
VERTEX
  8
0
 10
     837.456848
 20
     461.577362
 30
       0.000000
  0
VERTEX
  8
0
 10
     837.881653
 20
     461.565643
 30
       0.000000
  0
VERTEX
  8
0
 10
     838.355774
 20
     461.551971
 30
       0.000000
  0
VERTEX
  8
0
 10
     838.889465
 20
     461.532440
 30
       0.000000
  0
VERTEX
  8
0
 10
     839.494446
 20
     461.510956
 30
       0.000000
  0
VERTEX
  8
0
 10
     840.187317
 20
     461.483612
 30
       0.000000
  0
VERTEX
  8
0
 10
     840.986633
 20
     461.446503
 30
       0.000000
  0
VERTEX
  8
0
 10
     841.918762
 20
     461.401581
 30
       0.000000
  0
VERTEX
  8
0
 10
     843.015442
 20
     461.341034
 30
       0.000000
  0
VERTEX
  8
0
 10
     844.317688
 20
     461.259003
 30
       0.000000
  0
VERTEX
  8
0
 10
     845.872375
 20
     461.143768
 30
       0.000000
  0
VERTEX
  8
0
 10
     847.730286
 20
     460.981659
 30
       0.000000
  0
SEQEND
  8
0
  0
POLYLINE
  8
0
 66
     1
 10
       0.000000
 20
       0.000000
 30
       0.000000
  0
VERTEX
  8
0
 10
     847.730286
 20
     460.981659
 30
       0.000000
  0
VERTEX
  8
0
 10
     849.920227
 20
     460.747284
 30
       0.000000
  0
VERTEX
  8
0
 10
     852.396790
 20
     460.403534
 30
       0.000000
  0
VERTEX
  8
0
 10
     854.927063
 20
     459.911346
 30
       0.000000
  0
VERTEX
  8
0
 10
     856.968079
 20
     459.247284
 30
       0.000000
  0
VERTEX
  8
0
 10
     857.776672
 20
     458.454315
 30
       0.000000
  0
VERTEX
  8
0
 10
     856.968079
 20
     457.663300
 30
       0.000000
  0
VERTEX
  8
0
 10
     854.927063
 20
     456.997284
 30
       0.000000
  0
VERTEX
  8
0
 10
     852.396790
 20
     456.505096
 30
       0.000000
  0
VERTEX
  8
0
 10
     849.920227
 20
     456.163300
 30
       0.000000
  0
VERTEX
  8
0
 10
     847.730286
 20
     455.928925
 30
       0.000000
  0
VERTEX
  8
0
 10
     845.872375
 20
     455.766815
 30
       0.000000
  0
VERTEX
  8
0
 10
     844.317688
 20
     455.651581
 30
       0.000000
  0
VERTEX
  8
0
 10
     843.015442
 20
     455.569550
 30
       0.000000
  0
VERTEX
  8
0
 10
     841.918762
 20
     455.509003
 30
       0.000000
  0
VERTEX
  8
0
 10
     840.986633
 20
     455.462128
 30
       0.000000
  0
VERTEX
  8
0
 10
     840.187317
 20
     455.426971
 30
       0.000000
  0
VERTEX
  8
0
 10
     839.494446
 20
     455.399628
 30
       0.000000
  0
VERTEX
  8
0
 10
     838.889465
 20
     455.376190
 30
       0.000000
  0
VERTEX
  8
0
 10
     838.355774
 20
     455.358612
 30
       0.000000
  0
VERTEX
  8
0
 10
     837.881165
 20
     455.344940
 30
       0.000000
  0
VERTEX
  8
0
 10
     837.456848
 20
     455.333221
 30
       0.000000
  0
VERTEX
  8
0
 10
     837.074036
 20
     455.321503
 30
       0.000000
  0
VERTEX
  8
0
 10
     836.726868
 20
     455.313690
 30
       0.000000
  0
VERTEX
  8
0
 10
     836.409973
 20
     455.305878
 30
       0.000000
  0
VERTEX
  8
0
 10
     836.119446
 20
     455.300018
 30
       0.000000
  0
VERTEX
  8
0
 10
     835.850891
 20
     455.294159
 30
       0.000000
  0
VERTEX
  8
0
 10
     835.602844
 20
     455.290253
 30
       0.000000
  0
VERTEX
  8
0
 10
     835.371399
 20
     455.286346
 30
       0.000000
  0
VERTEX
  8
0
 10
     834.581360
 20
     455.274628
 30
       0.000000
  0
VERTEX
  8
0
 10
     833.943665
 20
     455.266815
 30
       0.000000
  0
VERTEX
  8
0
 10
     833.159485
 20
     455.259003
 30
       0.000000
  0
VERTEX
  8
0
 10
     832.283508
 20
     455.255096
 30
       0.000000
  0
VERTEX
  8
0
 10
     831.269836
 20
     455.255096
 30
       0.000000
  0
VERTEX
  8
0
 10
     830.149719
 20
     455.260956
 30
       0.000000
  0
VERTEX
  8
0
 10
     828.971985
 20
     455.274628
 30
       0.000000
  0
VERTEX
  8
0
 10
     828.181946
 20
     455.286346
 30
       0.000000
  0
VERTEX
  8
0
 10
     827.950500
 20
     455.290253
 30
       0.000000
  0
VERTEX
  8
0
 10
     827.702454
 20
     455.294159
 30
       0.000000
  0
VERTEX
  8
0
 10
     827.433899
 20
     455.300018
 30
       0.000000
  0
VERTEX
  8
0
 10
     827.143372
 20
     455.305878
 30
       0.000000
  0
VERTEX
  8
0
 10
     826.826477
 20
     455.313690
 30
       0.000000
  0
VERTEX
  8
0
 10
     826.478821
 20
     455.321503
 30
       0.000000
  0
VERTEX
  8
0
 10
     826.096497
 20
     455.333221
 30
       0.000000
  0
VERTEX
  8
0
 10
     825.671692
 20
     455.344940
 30
       0.000000
  0
VERTEX
  8
0
 10
     825.197571
 20
     455.358612
 30
       0.000000
  0
VERTEX
  8
0
 10
     824.663879
 20
     455.376190
 30
       0.000000
  0
VERTEX
  8
0
 10
     824.058899
 20
     455.399628
 30
       0.000000
  0
SEQEND
  8
0
  0
POLYLINE
  8
0
 66
     1
 10
       0.000000
 20
       0.000000
 30
       0.000000
  0
VERTEX
  8
0
 10
     824.058899
 20
     455.399628
 30
       0.000000
  0
VERTEX
  8
0
 10
     823.366028
 20
     455.426971
 30
       0.000000
  0
VERTEX
  8
0
 10
     822.566711
 20
     455.462128
 30
       0.000000
  0
VERTEX
  8
0
 10
     821.634583
 20
     455.509003
 30
       0.000000
  0
VERTEX
  8
0
 10
     820.537903
 20
     455.569550
 30
       0.000000
  0
VERTEX
  8
0
 10
     819.235657
 20
     455.651581
 30
       0.000000
  0
VERTEX
  8
0
 10
     817.680969
 20
     455.766815
 30
       0.000000
  0
VERTEX
  8
0
 10
     815.822571
 20
     455.928925
 30
       0.000000
  0
VERTEX
  8
0
 10
     813.633118
 20
     456.163300
 30
       0.000000
  0
VERTEX
  8
0
 10
     811.156555
 20
     456.505096
 30
       0.000000
  0
VERTEX
  8
0
 10
     808.625793
 20
     456.999237
 30
       0.000000
  0
VERTEX
  8
0
 10
     806.584778
 20
     457.663300
 30
       0.000000
  0
VERTEX
  8
0
 10
     805.776672
 20
     458.454315
 30
       0.000000
  0
SEQEND
  8
0
  0
TEXT
  8
0
 10
    2183.791504
 20
    1254.262817
 40
     100.000000
 50
       0.000000
 51
       0.000000
 41
       0.746667
  1
CLASSIC DUO
 72
     3
 11
    2754.458252
 21
    1254.262817
  0
TEXT
  8
0
 10
    3004.783691
 20
     878.985535
 40
      66.666664
 50
       0.000000
 51
       0.000000
 41
       0.910000
  1
430
 72
     3
 11
    3117.450439
 21
     878.985535
  0
TEXT
  8
0
 10
    2671.450195
 20
     878.985535
 40
      66.666664
 50
       0.000000
 51
       0.000000
 41
       0.910000
  1
700
 72
     3
 11
    2784.116943
 21
     878.985535
  0
TEXT
  8
0
 10
    2338.117188
 20
     878.987488
 40
      66.666664
 50
       0.000000
 51
       0.000000
 41
       0.910000
  1
1600
 72
     3
 11
    2483.283936
 21
     878.987488
  0
TEXT
  8
0
 10
    3004.783691
 20
    1078.985474
 40
      66.666664
 50
       0.000000
 51
       0.000000
 41
       0.910000
  1
Tiefe
 72
     3
 11
    3171.616943
 21
    1078.985474
  0
TEXT
  8
0
 10
    2671.451172
 20
    1078.985474
 40
      66.666664
 50
       0.000000
 51
       0.000000
 41
       0.910000
  1
Breite
 72
     3
 11
    2870.221191
 21
    1078.985474
  0
TEXT
  8
0
 10
    2338.118164
 20
    1078.987427
 40
      66.666664
 50
       0.000000
 51
       0.000000
 41
       0.910000
  1
Laenge
 72
     3
 11
    2580.784912
 21
    1078.987427
  0
TEXT
  8
0
 10
    2004.785156
 20
    1078.987427
 40
      66.666664
 50
       0.000000
 51
       0.000000
 41
       0.910000
  1
Modell
 72
     3
 11
    2212.785156
 21
    1078.987427
  0
TEXT
  8
0
 10
    2038.037109
 20
     874.907410
 40
      66.666664
 50
       0.000000
 51
       0.000000
 41
       0.910000
  1
103
 72
     3
 11
    2139.870361
 21
     874.907410
  0
ENDSEC
  0
EOF
