  0
SECTION
  2
HEADER
  9
$ACADVER
  1
AC1009
  9
$DWGCODEPAGE
  3
ansi_1252
  9
$INSBASE
 10
0.0
 20
0.0
 30
0.0
  9
$EXTMIN
 10
0.0
 20
0.0
 30
0.0
  9
$EXTMAX
 10
1100.0
 20
594.0
 30
0.0
  9
$LIMMIN
 10
0.0
 20
0.0
  9
$LIMMAX
 10
1100.0
 20
594.0
  9
$ORTHOMODE
 70
     0
  9
$REGENMODE
 70
     1
  9
$FILLMODE
 70
     1
  9
$QTEXTMODE
 70
     0
  9
$MIRRTEXT
 70
     1
  9
$DRAGMODE
 70
     2
  9
$LTSCALE
 40
1.0
  9
$OSMODE
 70
    37
  9
$ATTMODE
 70
     1
  9
$TEXTSIZE
 40
3.5
  9
$TRACEWID
 40
1.0
  9
$TEXTSTYLE
  7
STANDARD
  9
$CLAYER
  8
0
  9
$CELTYPE
  6
BYLAYER
  9
$CECOLOR
 62
   256
  9
$DIMSCALE
 40
1.0
  9
$DIMASZ
 40
2.5
  9
$DIMEXO
 40
0.0
  9
$DIMDLI
 40
3.75
  9
$DIMRND
 40
0.0
  9
$DIMDLE
 40
0.0
  9
$DIMEXE
 40
0.0
  9
$DIMTP
 40
0.0
  9
$DIMTM
 40
0.0
  9
$DIMTXT
 40
3.5
  9
$DIMCEN
 40
2.5
  9
$DIMTSZ
 40
0.0
  9
$DIMTOL
 70
     0
  9
$DIMLIM
 70
     0
  9
$DIMTIH
 70
     1
  9
$DIMTOH
 70
     1
  9
$DIMSE1
 70
     0
  9
$DIMSE2
 70
     0
  9
$DIMTAD
 70
     1
  9
$DIMZIN
 70
     0
  9
$DIMBLK
  1

  9
$DIMASO
 70
     1
  9
$DIMSHO
 70
     1
  9
$DIMPOST
  1

  9
$DIMAPOST
  1

  9
$DIMALT
 70
     0
  9
$DIMALTD
 70
     3
  9
$DIMALTF
 40
0.0393700787
  9
$DIMLFAC
 40
5.0
  9
$DIMTOFL
 70
     1
  9
$DIMTVP
 40
0.0
  9
$DIMTIX
 70
     0
  9
$DIMSOXD
 70
     0
  9
$DIMSAH
 70
     0
  9
$DIMBLK1
  1

  9
$DIMBLK2
  1

  9
$DIMSTYLE
  2
ISO-25
  9
$DIMCLRD
 70
     0
  9
$DIMCLRE
 70
     0
  9
$DIMCLRT
 70
     0
  9
$DIMTFAC
 40
1.0
  9
$DIMGAP
 40
1.524
  9
$LUNITS
 70
     2
  9
$LUPREC
 70
     2
  9
$SKETCHINC
 40
1.0
  9
$FILLETRAD
 40
10.0
  9
$AUNITS
 70
     0
  9
$AUPREC
 70
     2
  9
$MENU
  1
.
  9
$ELEVATION
 40
0.0
  9
$PELEVATION
 40
0.0
  9
$THICKNESS
 40
0.0
  9
$LIMCHECK
 70
     0
  9
$CHAMFERA
 40
0.0
  9
$CHAMFERB
 40
0.0
  9
$SKPOLY
 70
     0
  9
$TDCREATE
 40
2457794.526446342
  9
$TDUPDATE
 40
2457794.526447975
  9
$TDINDWG
 40
0.0000000116
  9
$TDUSRTIMER
 40
0.0000000116
  9
$USRTIMER
 70
     1
  9
$ANGBASE
 50
0.0
  9
$ANGDIR
 70
     0
  9
$PDMODE
 70
     0
  9
$PDSIZE
 40
-1.0
  9
$PLINEWID
 40
0.0
  9
$COORDS
 70
     1
  9
$SPLFRAME
 70
     0
  9
$SPLINETYPE
 70
     6
  9
$SPLINESEGS
 70
     8
  9
$ATTDIA
 70
     0
  9
$ATTREQ
 70
     1
  9
$HANDLING
 70
     1
  9
$HANDSEED
  5
2FF
  9
$SURFTAB1
 70
     6
  9
$SURFTAB2
 70
     6
  9
$SURFTYPE
 70
     6
  9
$SURFU
 70
     6
  9
$SURFV
 70
     6
  9
$UCSNAME
  2

  9
$UCSORG
 10
0.0
 20
0.0
 30
0.0
  9
$UCSXDIR
 10
1.0
 20
0.0
 30
0.0
  9
$UCSYDIR
 10
0.0
 20
1.0
 30
0.0
  9
$PUCSNAME
  2

  9
$PUCSORG
 10
0.0
 20
0.0
 30
0.0
  9
$PUCSXDIR
 10
1.0
 20
0.0
 30
0.0
  9
$PUCSYDIR
 10
0.0
 20
1.0
 30
0.0
  9
$USERI1
 70
     0
  9
$USERI2
 70
     0
  9
$USERI3
 70
     0
  9
$USERI4
 70
     0
  9
$USERI5
 70
     0
  9
$USERR1
 40
0.0
  9
$USERR2
 40
0.0
  9
$USERR3
 40
0.0
  9
$USERR4
 40
0.0
  9
$USERR5
 40
0.0
  9
$WORLDVIEW
 70
     1
  9
$SHADEDGE
 70
     3
  9
$SHADEDIF
 70
    70
  9
$TILEMODE
 70
     1
  9
$MAXACTVP
 70
    64
  9
$PLIMCHECK
 70
     0
  9
$PEXTMIN
 10
1.0000000000E+20
 20
1.0000000000E+20
 30
1.0000000000E+20
  9
$PEXTMAX
 10
-1.0000000000E+20
 20
-1.0000000000E+20
 30
-1.0000000000E+20
  9
$PLIMMIN
 10
0.0
 20
0.0
  9
$PLIMMAX
 10
420.0
 20
297.0
  9
$UNITMODE
 70
     0
  9
$VISRETAIN
 70
     1
  9
$PLINEGEN
 70
     0
  9
$PSLTSCALE
 70
     1
  0
ENDSEC
  0
SECTION
  2
TABLES
  0
TABLE
  2
VPORT
 70
     1
  0
VPORT
  2
*ACTIVE
 70
     0
 10
0.0
 20
0.0
 11
1.0
 21
1.0
 12
550.0
 22
297.0
 13
0.0
 23
0.0
 14
10.0
 24
10.0
 15
10.0
 25
10.0
 16
0.0
 26
0.0
 36
1.0
 17
0.0
 27
0.0
 37
0.0
 40
594.0
 41
1.8518518519
 42
50.0
 43
0.0
 44
0.0
 50
0.0
 51
0.0
 71
     0
 72
  2000
 73
     1
 74
     3
 75
     0
 76
     0
 77
     0
 78
     0
  0
ENDTAB
  0
TABLE
  2
LTYPE
 70
     6
  0
LTYPE
  2
CONTINUOUS
 70
     0
  3
Solid line
 72
    65
 73
     0
 40
0.0
  0
LTYPE
  2
HIDDEN
 70
     0
  3
Hidden __ __ __ __ __ __ __ __ __ __ __ __ __ __
 72
    65
 73
     2
 40
1.905
 49
1.27
 49
-0.635
  0
LTYPE
  2
PHANTOM
 70
     0
  3
Phantom ______  __  __  ______  __  __  ______
 72
    65
 73
     6
 40
12.7
 49
6.35
 49
-1.27
 49
1.27
 49
-1.27
 49
1.27
 49
-1.27
  0
LTYPE
  2
CENTER
 70
     0
  3
Center ____ _ ____ _ ____ _ ____ _ ____ _ ____
 72
    65
 73
     4
 40
10.16
 49
6.35
 49
-1.27
 49
1.27
 49
-1.27
  0
LTYPE
  2
CENTERX2
 70
     0
  3
Center (2x) ________  __  ________  __  _____
 72
    65
 73
     4
 40
20.32
 49
12.7
 49
-2.54
 49
2.54
 49
-2.54
  0
LTYPE
  2
DOT2
 70
     0
  3
Dot (.5x) ........................................
 72
    65
 73
     2
 40
0.635
 49
0.0
 49
-0.635
  0
ENDTAB
  0
TABLE
  2
LAYER
 70
     2
  0
LAYER
  2
0
 70
     0
 62
     7
  6
CONTINUOUS
  0
LAYER
  2
DEFPOINTS
 70
     0
 62
     7
  6
CONTINUOUS
  0
ENDTAB
  0
TABLE
  2
STYLE
 70
     1
  0
STYLE
  2
STANDARD
 70
     0
 40
0.0
 41
1.0
 50
0.0
 71
     0
 42
3.5
  3
txt
  4

  0
ENDTAB
  0
TABLE
  2
VIEW
 70
     0
  0
ENDTAB
  0
TABLE
  2
UCS
 70
     0
  0
ENDTAB
  0
TABLE
  2
APPID
 70
     1
  0
APPID
  2
ACAD
 70
     0
  0
ENDTAB
  0
TABLE
  2
DIMSTYLE
 70
     1
  0
DIMSTYLE
  2
ISO-25
 70
     0
  3

  4

  5

  6

  7

 40
1.0
 41
2.5
 42
0.625
 43
3.75
 44
1.25
 45
0.0
 46
0.0
 47
0.0
 48
0.0
140
2.5
141
2.5
142
0.0
143
0.0393700787
144
1.0
145
0.0
146
1.0
147
0.625
 71
     0
 72
     0
 73
     0
 74
     0
 75
     0
 76
     0
 77
     1
 78
     8
170
     0
171
     3
172
     1
173
     0
174
     0
175
     0
176
     0
177
     0
178
     0
  0
ENDTAB
  0
ENDSEC
  0
SECTION
  2
BLOCKS
  0
BLOCK
  8
0
  2
$MODEL_SPACE
 70
     0
 10
0.0
 20
0.0
 30
0.0
  3
$MODEL_SPACE
  1

  0
ENDBLK
  5
21
  8
0
  0
BLOCK
 67
     1
  8
0
  2
$PAPER_SPACE
 70
     0
 10
0.0
 20
0.0
 30
0.0
  3
$PAPER_SPACE
  1

  0
ENDBLK
  5
1D
 67
     1
  8
0
  0
BLOCK
  8
0
  2
SW_TABLEANNOTATION_0
 70
     0
 10
0.0
 20
0.0
 30
0.0
  3
SW_TABLEANNOTATION_0
  1

  0
LINE
  5
73
  8
0
  6
CONTINUOUS
 62
     0
 10
0.0
 20
0.0
 30
0.0
 11
0.0
 21
-78.1499990791
 31
0.0
  0
LINE
  5
74
  8
0
  6
CONTINUOUS
 62
     0
 10
0.0
 20
-78.1499990791
 30
0.0
 11
479.815625884
 21
-78.1499990791
 31
0.0
  0
LINE
  5
75
  8
0
  6
CONTINUOUS
 62
     0
 10
479.815625884
 20
-78.1499990791
 30
0.0
 11
479.815625884
 21
0.0
 31
0.0
  0
LINE
  5
76
  8
0
  6
CONTINUOUS
 62
     0
 10
479.815625884
 20
0.0
 30
0.0
 11
0.0
 21
0.0
 31
0.0
  0
LINE
  5
77
  8
0
  6
CONTINUOUS
 62
     0
 10
93.4668343238
 20
-27.399999693
 30
0.0
 11
93.4668343238
 21
-78.1499990791
 31
0.0
  0
LINE
  5
78
  8
0
  6
CONTINUOUS
 62
     0
 10
215.5683959143
 20
-27.399999693
 30
0.0
 11
215.5683959143
 21
-78.1499990791
 31
0.0
  0
LINE
  5
79
  8
0
  6
CONTINUOUS
 62
     0
 10
344.0265483657
 20
-27.399999693
 30
0.0
 11
344.0265483657
 21
-78.1499990791
 31
0.0
  0
LINE
  5
7A
  8
0
  6
CONTINUOUS
 62
     0
 10
0.0
 20
-27.399999693
 30
0.0
 11
479.815625884
 21
-27.399999693
 31
0.0
  0
LINE
  5
7B
  8
0
  6
CONTINUOUS
 62
     0
 10
0.0
 20
-54.7999993861
 30
0.0
 11
479.815625884
 21
-54.7999993861
 31
0.0
  0
TEXT
  5
7C
  8
0
  6
CONTINUOUS
 62
     0
 10
61.9314281831
 20
-19.6703964448
 30
0.0
 40
19.05
  1
Cono links/rechts Ausführung
 41
0.675
 11
61.9314281831
 21
-26.4000006244
 31
0.0
 73
     1
  0
TEXT
  5
7D
  8
0
  6
CONTINUOUS
 62
     0
 10
4.7175815191
 20
-47.0703961378
 30
0.0
 40
19.05
  1
Modell
 41
0.7
 11
4.7175815191
 21
-53.8000003174
 31
0.0
 73
     1
  0
TEXT
  5
7E
  8
0
  6
CONTINUOUS
 62
     0
 10
107.1748341416
 20
-47.0703961378
 30
0.0
 40
19.05
  1
Laenge
 41
0.7
 11
107.1748341416
 21
-53.8000003174
 31
0.0
 73
     1
  0
TEXT
  5
7F
  8
0
  6
CONTINUOUS
 62
     0
 10
245.3310825733
 20
-47.0703961378
 30
0.0
 40
19.05
  1
Breite
 41
0.7
 11
245.3310825733
 21
-53.8000003174
 31
0.0
 73
     1
  0
TEXT
  5
80
  8
0
  6
CONTINUOUS
 62
     0
 10
383.4695587247
 20
-47.0703961378
 30
0.0
 40
19.05
  1
Tiefe
 41
0.7
 11
383.4695587247
 21
-53.8000003174
 31
0.0
 73
     1
  0
TEXT
  5
81
  8
0
  6
CONTINUOUS
 62
     0
 10
18.5817504164
 20
-74.8164937857
 30
0.0
 40
19.05
  1
3074
 41
0.7
 11
18.5817504164
 21
-81.5460979652
 31
0.0
 73
     1
  0
TEXT
  5
82
  8
0
  6
CONTINUOUS
 62
     0
 10
133.4038655256
 20
-74.8164937857
 30
0.0
 40
19.05
  1
550
 41
0.7
 11
133.4038655256
 21
-81.5460979652
 31
0.0
 73
     1
  0
TEXT
  5
83
  8
0
  6
CONTINUOUS
 62
     0
 10
258.6837225465
 20
-74.8164937857
 30
0.0
 40
19.05
  1
300
 41
0.7
 11
258.6837225465
 21
-81.5460979652
 31
0.0
 73
     1
  0
TEXT
  5
84
  8
0
  6
CONTINUOUS
 62
     0
 10
390.8073375314
 20
-74.8164937857
 30
0.0
 40
19.05
  1
102
 41
0.7
 11
390.8073375314
 21
-81.5460979652
 31
0.0
 73
     1
  0
ENDBLK
  5
72
  8
0
  0
ENDSEC
  0
SECTION
  2
ENTITIES
  0
INSERT
  5
85
  8
0
  6
CONTINUOUS
 62
     7
  2
SW_TABLEANNOTATION_0
 10
603.2202106142
 20
221.8267854683
 30
0.0
  0
LINE
  5
86
  8
0
  6
CONTINUOUS
 62
     7
 10
419.1986464483
 20
40.0029546717
 30
0.0
 11
109.0715191983
 21
40.0029546717
 31
0.0
  0
LINE
  5
87
  8
0
  6
CONTINUOUS
 62
     7
 10
583.6350921483
 20
264.8139613317
 30
0.0
 11
583.6350921483
 21
115.1919480117
 31
0.0
  0
LINE
  5
88
  8
0
  6
CONTINUOUS
 62
     7
 10
36.6350921483
 20
340.0029546717
 30
0.0
 11
109.0714622483
 21
340.0029546717
 31
0.0
  0
LINE
  5
89
  8
0
  6
CONTINUOUS
 62
     7
 10
109.0714526483
 20
340.0029546717
 30
0.0
 11
419.1987316483
 21
340.0029546717
 31
0.0
  0
LINE
  5
8A
  8
0
  6
CONTINUOUS
 62
     7
 10
33.6350921483
 20
119.3603742117
 30
0.0
 11
33.6350921483
 21
260.6455351317
 31
0.0
  0
LINE
  5
8B
  8
0
  6
CONTINUOUS
 62
     7
 10
580.6350921483
 20
40.0029546717
 30
0.0
 11
419.1986464483
 21
40.0029546717
 31
0.0
  0
LINE
  5
8C
  8
0
  6
CONTINUOUS
 62
     7
 10
583.6350921483
 20
337.0029546717
 30
0.0
 11
583.6350921483
 21
264.8139546217
 31
0.0
  0
LINE
  5
8D
  8
0
  6
CONTINUOUS
 62
     7
 10
583.6350921483
 20
115.1919488017
 30
0.0
 11
583.6350921483
 21
43.0029546717
 31
0.0
  0
LINE
  5
8E
  8
0
  6
CONTINUOUS
 62
     7
 10
109.0715191983
 20
40.0029546717
 30
0.0
 11
36.6350921483
 21
40.0029546717
 31
0.0
  0
LINE
  5
8F
  8
0
  6
CONTINUOUS
 62
     7
 10
419.1987316483
 20
340.0029546717
 30
0.0
 11
580.6350921483
 21
340.0029546717
 31
0.0
  0
ARC
  5
90
  8
0
  6
CONTINUOUS
 62
     7
 10
36.6350921483
 20
43.0029546717
 30
0.0
 40
3.000000000000007
 50
180.0
 51
270.0
  0
LINE
  5
91
  8
0
  6
CONTINUOUS
 62
     7
 10
33.6350921483
 20
43.0029546717
 30
0.0
 11
33.6350921483
 21
119.3603687517
 31
0.0
  0
ARC
  5
92
  8
0
  6
CONTINUOUS
 62
     7
 10
36.6350921483
 20
337.0029546717
 30
0.0
 40
3.000000000000007
 50
90.0
 51
179.9999999902
  0
LINE
  5
93
  8
0
  6
CONTINUOUS
 62
     7
 10
33.6350921483
 20
260.6455351317
 30
0.0
 11
33.6350921483
 21
337.0029546717
 31
0.0
  0
ARC
  5
94
  8
0
  6
CONTINUOUS
 62
     7
 10
580.6350921483
 20
43.0029546717
 30
0.0
 40
3.0
 50
270.0
 51
0.0
  0
ARC
  5
95
  8
0
  6
CONTINUOUS
 62
     7
 10
580.6350921483
 20
337.0029546717
 30
0.0
 40
3.0
 50
0.0
 51
90.0
  0
ARC
  5
96
  8
0
  6
CONTINUOUS
 62
     7
 10
264.1349281729
 20
190.0032548267
 30
0.0
 40
23.00000000269109
 50
28.6470377311
 51
208.648741781
  0
ARC
  5
97
  8
0
  6
CONTINUOUS
 62
     7
 10
264.1352561237
 20
190.0026545168
 30
0.0
 40
23.00000000269109
 50
208.6470377311
 51
28.648741781
  0
POLYLINE
  5
98
  8
0
  6
CONTINUOUS
 62
     8
 66
     1
 10
0.0
 20
0.0
 30
0.0
 70
   128
  0
VERTEX
  5
168
  8
0
  6
CONTINUOUS
 62
     8
 10
461.2869286179
 20
282.7289704129
 30
0.0
  0
VERTEX
  5
169
  8
0
  6
CONTINUOUS
 62
     8
 10
461.2494100812
 20
285.669453785
 30
0.0
  0
VERTEX
  5
16A
  8
0
  6
CONTINUOUS
 62
     8
 10
461.0399899531
 20
288.704621433
 30
0.0
  0
VERTEX
  5
16B
  8
0
  6
CONTINUOUS
 62
     8
 10
460.3887326111
 20
291.9152211791
 30
0.0
  0
VERTEX
  5
16C
  8
0
  6
CONTINUOUS
 62
     8
 10
459.4440971107
 20
294.38598634
 30
0.0
  0
VERTEX
  5
16D
  8
0
  6
CONTINUOUS
 62
     8
 10
457.9920775146
 20
296.8477612107
 30
0.0
  0
VERTEX
  5
16E
  8
0
  6
CONTINUOUS
 62
     8
 10
455.9981048144
 20
299.1924782918
 30
0.0
  0
VERTEX
  5
16F
  8
0
  6
CONTINUOUS
 62
     8
 10
453.4936099387
 20
301.3417223278
 30
0.0
  0
VERTEX
  5
170
  8
0
  6
CONTINUOUS
 62
     8
 10
450.5835929489
 20
303.2415916576
 30
0.0
  0
VERTEX
  5
171
  8
0
  6
CONTINUOUS
 62
     8
 10
447.4005705605
 20
304.8494174058
 30
0.0
  0
VERTEX
  5
172
  8
0
  6
CONTINUOUS
 62
     8
 10
444.1049799368
 20
306.1150040825
 30
0.0
  0
VERTEX
  5
173
  8
0
  6
CONTINUOUS
 62
     8
 10
440.8383329985
 20
307.0108254404
 30
0.0
  0
VERTEX
  5
174
  8
0
  6
CONTINUOUS
 62
     8
 10
436.690458068
 20
307.6624107752
 30
0.0
  0
VERTEX
  5
175
  8
0
  6
CONTINUOUS
 62
     8
 10
432.811950131
 20
307.8767050328
 30
0.0
  0
VERTEX
  5
176
  8
0
  6
CONTINUOUS
 62
     8
 10
429.1077000602
 20
307.9211781963
 30
0.0
  0
SEQEND
  5
2CD
  8
0
  6
CONTINUOUS
 62
     8
  0
POLYLINE
  5
99
  8
0
  6
CONTINUOUS
 62
     8
 66
     1
 10
0.0
 20
0.0
 30
0.0
 70
   128
  0
VERTEX
  5
177
  8
0
  6
CONTINUOUS
 62
     8
 10
429.6077097483
 20
319.4796853717
 30
0.0
  0
VERTEX
  5
178
  8
0
  6
CONTINUOUS
 62
     8
 10
435.0821992578
 20
319.4291556873
 30
0.0
  0
VERTEX
  5
179
  8
0
  6
CONTINUOUS
 62
     8
 10
440.5672272767
 20
319.3031652728
 30
0.0
  0
VERTEX
  5
17A
  8
0
  6
CONTINUOUS
 62
     8
 10
446.0466702897
 20
318.947950365
 30
0.0
  0
VERTEX
  5
17B
  8
0
  6
CONTINUOUS
 62
     8
 10
451.4061311762
 20
318.1693945064
 30
0.0
  0
VERTEX
  5
17C
  8
0
  6
CONTINUOUS
 62
     8
 10
456.4684577036
 20
316.7692675504
 30
0.0
  0
VERTEX
  5
17D
  8
0
  6
CONTINUOUS
 62
     8
 10
461.0016567386
 20
314.5929445331
 30
0.0
  0
VERTEX
  5
17E
  8
0
  6
CONTINUOUS
 62
     8
 10
464.7724286534
 20
311.5573585705
 30
0.0
  0
VERTEX
  5
17F
  8
0
  6
CONTINUOUS
 62
     8
 10
467.4248387321
 20
308.0161680738
 30
0.0
  0
VERTEX
  5
180
  8
0
  6
CONTINUOUS
 62
     8
 10
469.2692036489
 20
303.8143890068
 30
0.0
  0
VERTEX
  5
181
  8
0
  6
CONTINUOUS
 62
     8
 10
470.3651521553
 20
299.0749379468
 30
0.0
  0
VERTEX
  5
182
  8
0
  6
CONTINUOUS
 62
     8
 10
470.8859224085
 20
293.9551146605
 30
0.0
  0
VERTEX
  5
183
  8
0
  6
CONTINUOUS
 62
     8
 10
471.0561650969
 20
288.6268853293
 30
0.0
  0
VERTEX
  5
184
  8
0
  6
CONTINUOUS
 62
     8
 10
471.1018415483
 20
283.2289600117
 30
0.0
  0
SEQEND
  5
2CE
  8
0
  6
CONTINUOUS
 62
     8
  0
POLYLINE
  5
9A
  8
0
  6
CONTINUOUS
 62
     8
 66
     1
 10
0.0
 20
0.0
 30
0.0
 70
   128
  0
VERTEX
  5
185
  8
0
  6
CONTINUOUS
 62
     8
 10
66.9832556366
 20
97.2769388564
 30
0.0
  0
VERTEX
  5
186
  8
0
  6
CONTINUOUS
 62
     8
 10
67.0207741789
 20
94.3364555018
 30
0.0
  0
VERTEX
  5
187
  8
0
  6
CONTINUOUS
 62
     8
 10
67.2301943087
 20
91.3012878636
 30
0.0
  0
VERTEX
  5
188
  8
0
  6
CONTINUOUS
 62
     8
 10
67.8814516767
 20
88.0906881527
 30
0.0
  0
VERTEX
  5
189
  8
0
  6
CONTINUOUS
 62
     8
 10
68.8260871866
 20
85.6199230017
 30
0.0
  0
VERTEX
  5
18A
  8
0
  6
CONTINUOUS
 62
     8
 10
70.2781067827
 20
83.1581481289
 30
0.0
  0
VERTEX
  5
18B
  8
0
  6
CONTINUOUS
 62
     8
 10
72.2720794677
 20
80.8134310358
 30
0.0
  0
VERTEX
  5
18C
  8
0
  6
CONTINUOUS
 62
     8
 10
74.7765743422
 20
78.6641870035
 30
0.0
  0
VERTEX
  5
18D
  8
0
  6
CONTINUOUS
 62
     8
 10
77.6865913451
 20
76.7643176821
 30
0.0
  0
VERTEX
  5
18E
  8
0
  6
CONTINUOUS
 62
     8
 10
80.8696137332
 20
75.1564919349
 30
0.0
  0
VERTEX
  5
18F
  8
0
  6
CONTINUOUS
 62
     8
 10
84.1652043609
 20
73.8909052582
 30
0.0
  0
VERTEX
  5
190
  8
0
  6
CONTINUOUS
 62
     8
 10
87.4318513029
 20
72.9950839021
 30
0.0
  0
VERTEX
  5
191
  8
0
  6
CONTINUOUS
 62
     8
 10
91.5797262663
 20
72.3434985747
 30
0.0
  0
VERTEX
  5
192
  8
0
  6
CONTINUOUS
 62
     8
 10
95.458234171
 20
72.1292043106
 30
0.0
  0
VERTEX
  5
193
  8
0
  6
CONTINUOUS
 62
     8
 10
99.1624842363
 20
72.0847311472
 30
0.0
  0
SEQEND
  5
2CF
  8
0
  6
CONTINUOUS
 62
     8
  0
POLYLINE
  5
9B
  8
0
  6
CONTINUOUS
 62
     8
 66
     1
 10
0.0
 20
0.0
 30
0.0
 70
   128
  0
VERTEX
  5
194
  8
0
  6
CONTINUOUS
 62
     8
 10
57.1683427483
 20
96.7769499017
 30
0.0
  0
VERTEX
  5
195
  8
0
  6
CONTINUOUS
 62
     8
 10
57.2214389679
 20
90.8900702142
 30
0.0
  0
VERTEX
  5
196
  8
0
  6
CONTINUOUS
 62
     8
 10
57.4458789231
 20
85.0995358929
 30
0.0
  0
VERTEX
  5
197
  8
0
  6
CONTINUOUS
 62
     8
 10
58.1376776119
 20
79.5936181282
 30
0.0
  0
VERTEX
  5
198
  8
0
  6
CONTINUOUS
 62
     8
 10
59.5795465152
 20
74.5939555642
 30
0.0
  0
VERTEX
  5
199
  8
0
  6
CONTINUOUS
 62
     8
 10
61.9510710748
 20
70.2927152718
 30
0.0
  0
VERTEX
  5
19A
  8
0
  6
CONTINUOUS
 62
     8
 10
65.2755116411
 20
66.8213367004
 30
0.0
  0
VERTEX
  5
19B
  8
0
  6
CONTINUOUS
 62
     8
 10
69.4534510982
 20
64.2207361571
 30
0.0
  0
VERTEX
  5
19C
  8
0
  6
CONTINUOUS
 62
     8
 10
74.7914751766
 20
62.3118925844
 30
0.0
  0
VERTEX
  5
19D
  8
0
  6
CONTINUOUS
 62
     8
 10
80.5958391484
 20
61.2378418586
 30
0.0
  0
VERTEX
  5
19E
  8
0
  6
CONTINUOUS
 62
     8
 10
86.6043018451
 20
60.7495259505
 30
0.0
  0
VERTEX
  5
19F
  8
0
  6
CONTINUOUS
 62
     8
 10
92.6404894495
 20
60.5839550657
 30
0.0
  0
VERTEX
  5
1A0
  8
0
  6
CONTINUOUS
 62
     8
 10
98.6624729483
 20
60.5262239717
 30
0.0
  0
SEQEND
  5
2D0
  8
0
  6
CONTINUOUS
 62
     8
  0
POLYLINE
  5
9C
  8
0
  6
CONTINUOUS
 62
     8
 66
     1
 10
0.0
 20
0.0
 30
0.0
 70
   128
  0
VERTEX
  5
1A1
  8
0
  6
CONTINUOUS
 62
     8
 10
98.6624745483
 20
319.4796853717
 30
0.0
  0
VERTEX
  5
1A2
  8
0
  6
CONTINUOUS
 62
     8
 10
93.1879850388
 20
319.4291556873
 30
0.0
  0
VERTEX
  5
1A3
  8
0
  6
CONTINUOUS
 62
     8
 10
87.7029570198
 20
319.3031652728
 30
0.0
  0
VERTEX
  5
1A4
  8
0
  6
CONTINUOUS
 62
     8
 10
82.2235140068
 20
318.947950365
 30
0.0
  0
VERTEX
  5
1A5
  8
0
  6
CONTINUOUS
 62
     8
 10
76.8640531204
 20
318.1693945064
 30
0.0
  0
VERTEX
  5
1A6
  8
0
  6
CONTINUOUS
 62
     8
 10
71.8017265929
 20
316.7692675504
 30
0.0
  0
VERTEX
  5
1A7
  8
0
  6
CONTINUOUS
 62
     8
 10
67.268527558
 20
314.5929445331
 30
0.0
  0
VERTEX
  5
1A8
  8
0
  6
CONTINUOUS
 62
     8
 10
63.4977556431
 20
311.5573585705
 30
0.0
  0
VERTEX
  5
1A9
  8
0
  6
CONTINUOUS
 62
     8
 10
60.8453455645
 20
308.0161680738
 30
0.0
  0
VERTEX
  5
1AA
  8
0
  6
CONTINUOUS
 62
     8
 10
59.0009806477
 20
303.8143890068
 30
0.0
  0
VERTEX
  5
1AB
  8
0
  6
CONTINUOUS
 62
     8
 10
57.9050321412
 20
299.0749379468
 30
0.0
  0
VERTEX
  5
1AC
  8
0
  6
CONTINUOUS
 62
     8
 10
57.3842618881
 20
293.9551146605
 30
0.0
  0
VERTEX
  5
1AD
  8
0
  6
CONTINUOUS
 62
     8
 10
57.2140191997
 20
288.6268853293
 30
0.0
  0
VERTEX
  5
1AE
  8
0
  6
CONTINUOUS
 62
     8
 10
57.1683427483
 20
283.2289600117
 30
0.0
  0
SEQEND
  5
2D1
  8
0
  6
CONTINUOUS
 62
     8
  0
POLYLINE
  5
9D
  8
0
  6
CONTINUOUS
 62
     8
 66
     1
 10
0.0
 20
0.0
 30
0.0
 70
   128
  0
VERTEX
  5
1AF
  8
0
  6
CONTINUOUS
 62
     8
 10
66.9830869483
 20
282.7289714717
 30
0.0
  0
VERTEX
  5
1B0
  8
0
  6
CONTINUOUS
 62
     8
 10
67.0254160122
 20
285.8252314664
 30
0.0
  0
VERTEX
  5
1B1
  8
0
  6
CONTINUOUS
 62
     8
 10
67.2684127737
 20
289.0018672621
 30
0.0
  0
VERTEX
  5
1B2
  8
0
  6
CONTINUOUS
 62
     8
 10
68.0043444427
 20
292.3141560598
 30
0.0
  0
VERTEX
  5
1B3
  8
0
  6
CONTINUOUS
 62
     8
 10
69.0358287152
 20
294.8091961476
 30
0.0
  0
VERTEX
  5
1B4
  8
0
  6
CONTINUOUS
 62
     8
 10
70.5497742972
 20
297.2187722552
 30
0.0
  0
VERTEX
  5
1B5
  8
0
  6
CONTINUOUS
 62
     8
 10
72.5552709497
 20
299.4697711116
 30
0.0
  0
VERTEX
  5
1B6
  8
0
  6
CONTINUOUS
 62
     8
 10
75.0080685493
 20
301.5121135797
 30
0.0
  0
VERTEX
  5
1B7
  8
0
  6
CONTINUOUS
 62
     8
 10
77.8229633227
 20
303.3194137085
 30
0.0
  0
VERTEX
  5
1B8
  8
0
  6
CONTINUOUS
 62
     8
 10
80.8912765402
 20
304.8590229702
 30
0.0
  0
VERTEX
  5
1B9
  8
0
  6
CONTINUOUS
 62
     8
 10
84.092206033
 20
306.0908254741
 30
0.0
  0
VERTEX
  5
1BA
  8
0
  6
CONTINUOUS
 62
     8
 10
87.3104153841
 20
306.9839344467
 30
0.0
  0
VERTEX
  5
1BB
  8
0
  6
CONTINUOUS
 62
     8
 10
91.4671927903
 20
307.651226121
 30
0.0
  0
VERTEX
  5
1BC
  8
0
  6
CONTINUOUS
 62
     8
 10
95.3890785228
 20
307.8752474048
 30
0.0
  0
VERTEX
  5
1BD
  8
0
  6
CONTINUOUS
 62
     8
 10
99.1624843483
 20
307.9211780717
 30
0.0
  0
SEQEND
  5
2D2
  8
0
  6
CONTINUOUS
 62
     8
  0
POLYLINE
  5
9E
  8
0
  6
CONTINUOUS
 62
     8
 66
     1
 10
0.0
 20
0.0
 30
0.0
 70
   128
  0
VERTEX
  5
1BE
  8
0
  6
CONTINUOUS
 62
     8
 10
471.1018415483
 20
96.7769499017
 30
0.0
  0
VERTEX
  5
1BF
  8
0
  6
CONTINUOUS
 62
     8
 10
471.0487453286
 20
90.8900702142
 30
0.0
  0
VERTEX
  5
1C0
  8
0
  6
CONTINUOUS
 62
     8
 10
470.8243053735
 20
85.0995358929
 30
0.0
  0
VERTEX
  5
1C1
  8
0
  6
CONTINUOUS
 62
     8
 10
470.1325066847
 20
79.5936181282
 30
0.0
  0
VERTEX
  5
1C2
  8
0
  6
CONTINUOUS
 62
     8
 10
468.6906377814
 20
74.5939555642
 30
0.0
  0
VERTEX
  5
1C3
  8
0
  6
CONTINUOUS
 62
     8
 10
466.3191132217
 20
70.2927152718
 30
0.0
  0
VERTEX
  5
1C4
  8
0
  6
CONTINUOUS
 62
     8
 10
462.9946726555
 20
66.8213367004
 30
0.0
  0
VERTEX
  5
1C5
  8
0
  6
CONTINUOUS
 62
     8
 10
458.8167331984
 20
64.2207361571
 30
0.0
  0
VERTEX
  5
1C6
  8
0
  6
CONTINUOUS
 62
     8
 10
453.47870912
 20
62.3118925844
 30
0.0
  0
VERTEX
  5
1C7
  8
0
  6
CONTINUOUS
 62
     8
 10
447.6743451481
 20
61.2378418586
 30
0.0
  0
VERTEX
  5
1C8
  8
0
  6
CONTINUOUS
 62
     8
 10
441.6658824515
 20
60.7495259505
 30
0.0
  0
VERTEX
  5
1C9
  8
0
  6
CONTINUOUS
 62
     8
 10
435.629694847
 20
60.5839550657
 30
0.0
  0
VERTEX
  5
1CA
  8
0
  6
CONTINUOUS
 62
     8
 10
429.6077113483
 20
60.5262239717
 30
0.0
  0
SEQEND
  5
2D3
  8
0
  6
CONTINUOUS
 62
     8
  0
POLYLINE
  5
9F
  8
0
  6
CONTINUOUS
 62
     8
 66
     1
 10
0.0
 20
0.0
 30
0.0
 70
   128
  0
VERTEX
  5
1CB
  8
0
  6
CONTINUOUS
 62
     8
 10
461.2870974483
 20
97.2769378317
 30
0.0
  0
VERTEX
  5
1CC
  8
0
  6
CONTINUOUS
 62
     8
 10
461.2447683303
 20
94.1806778366
 30
0.0
  0
VERTEX
  5
1CD
  8
0
  6
CONTINUOUS
 62
     8
 10
461.0017715619
 20
91.0040420219
 30
0.0
  0
VERTEX
  5
1CE
  8
0
  6
CONTINUOUS
 62
     8
 10
460.2658398934
 20
87.6917532323
 30
0.0
  0
VERTEX
  5
1CF
  8
0
  6
CONTINUOUS
 62
     8
 10
459.2343555959
 20
85.1967131737
 30
0.0
  0
VERTEX
  5
1D0
  8
0
  6
CONTINUOUS
 62
     8
 10
457.7204100006
 20
82.7871370833
 30
0.0
  0
VERTEX
  5
1D1
  8
0
  6
CONTINUOUS
 62
     8
 10
455.7149133469
 20
80.536138232
 30
0.0
  0
VERTEX
  5
1D2
  8
0
  6
CONTINUOUS
 62
     8
 10
453.2621157498
 20
78.4937957654
 30
0.0
  0
VERTEX
  5
1D3
  8
0
  6
CONTINUOUS
 62
     8
 10
450.4472209784
 20
76.6864956375
 30
0.0
  0
VERTEX
  5
1D4
  8
0
  6
CONTINUOUS
 62
     8
 10
447.3789077606
 20
75.1468863759
 30
0.0
  0
VERTEX
  5
1D5
  8
0
  6
CONTINUOUS
 62
     8
 10
444.1779782608
 20
73.9150838715
 30
0.0
  0
VERTEX
  5
1D6
  8
0
  6
CONTINUOUS
 62
     8
 10
440.9597688869
 20
73.0219748981
 30
0.0
  0
VERTEX
  5
1D7
  8
0
  6
CONTINUOUS
 62
     8
 10
436.8029914594
 20
72.3546832229
 30
0.0
  0
VERTEX
  5
1D8
  8
0
  6
CONTINUOUS
 62
     8
 10
432.8811057601
 20
72.1306619387
 30
0.0
  0
VERTEX
  5
1D9
  8
0
  6
CONTINUOUS
 62
     8
 10
429.1076999483
 20
72.0847312717
 30
0.0
  0
SEQEND
  5
2D4
  8
0
  6
CONTINUOUS
 62
     8
  0
POLYLINE
  5
A0
  8
0
  6
CONTINUOUS
 62
     8
 66
     1
 10
0.0
 20
0.0
 30
0.0
 70
   128
  0
VERTEX
  5
1DA
  8
0
  6
CONTINUOUS
 62
     8
 10
57.168288252
 20
283.2289465048
 30
0.0
  0
VERTEX
  5
1DB
  8
0
  6
CONTINUOUS
 62
     8
 10
56.8767566023
 20
178.7979104504
 30
0.0
  0
VERTEX
  5
1DC
  8
0
  6
CONTINUOUS
 62
     8
 10
57.1682881634
 20
96.7769634805
 30
0.0
  0
SEQEND
  5
2D5
  8
0
  6
CONTINUOUS
 62
     8
  0
POLYLINE
  5
A1
  8
0
  6
CONTINUOUS
 62
     8
 66
     1
 10
0.0
 20
0.0
 30
0.0
 70
   128
  0
VERTEX
  5
1DD
  8
0
  6
CONTINUOUS
 62
     8
 10
429.6076787229
 20
60.5262105009
 30
0.0
  0
VERTEX
  5
1DE
  8
0
  6
CONTINUOUS
 62
     8
 10
336.9436004048
 20
59.9799474566
 30
0.0
  0
VERTEX
  5
1DF
  8
0
  6
CONTINUOUS
 62
     8
 10
244.2781916476
 20
59.8585556689
 30
0.0
  0
VERTEX
  5
1E0
  8
0
  6
CONTINUOUS
 62
     8
 10
98.6625055446
 20
60.5262105009
 30
0.0
  0
SEQEND
  5
2D6
  8
0
  6
CONTINUOUS
 62
     8
  0
POLYLINE
  5
A2
  8
0
  6
CONTINUOUS
 62
     8
 66
     1
 10
0.0
 20
0.0
 30
0.0
 70
   128
  0
VERTEX
  5
1E1
  8
0
  6
CONTINUOUS
 62
     8
 10
471.1018960446
 20
283.2289465048
 30
0.0
  0
VERTEX
  5
1E2
  8
0
  6
CONTINUOUS
 62
     8
 10
471.3934276943
 20
178.7979104504
 30
0.0
  0
VERTEX
  5
1E3
  8
0
  6
CONTINUOUS
 62
     8
 10
471.1018961332
 20
96.7769634805
 30
0.0
  0
SEQEND
  5
2D7
  8
0
  6
CONTINUOUS
 62
     8
  0
POLYLINE
  5
A3
  8
0
  6
CONTINUOUS
 62
     8
 66
     1
 10
0.0
 20
0.0
 30
0.0
 70
   128
  0
VERTEX
  5
1E4
  8
0
  6
CONTINUOUS
 62
     8
 10
98.6625067592
 20
319.4796988525
 30
0.0
  0
VERTEX
  5
1E5
  8
0
  6
CONTINUOUS
 62
     8
 10
191.3265842272
 20
320.0259618884
 30
0.0
  0
VERTEX
  5
1E6
  8
0
  6
CONTINUOUS
 62
     8
 10
283.9919921724
 20
320.1473536749
 30
0.0
  0
VERTEX
  5
1E7
  8
0
  6
CONTINUOUS
 62
     8
 10
429.6076770815
 20
319.479698856
 30
0.0
  0
SEQEND
  5
2D8
  8
0
  6
CONTINUOUS
 62
     8
  0
LINE
  5
A4
  8
0
  6
CONTINUOUS
 62
     8
 10
36.6350921483
 20
260.6455396517
 30
0.0
 11
36.6350919483
 21
337.0029093441
 31
0.0
  0
LINE
  5
A5
  8
0
  6
CONTINUOUS
 62
     8
 10
109.0714496774
 20
337.0029546717
 30
0.0
 11
36.6350921483
 21
337.0029546717
 31
0.0
  0
LINE
  5
A6
  8
0
  6
CONTINUOUS
 62
     8
 10
419.1987316483
 20
337.0029546562
 30
0.0
 11
109.0714526483
 21
337.0029546562
 31
0.0
  0
LINE
  5
A7
  8
0
  6
CONTINUOUS
 62
     8
 10
580.6350921483
 20
337.0029546717
 30
0.0
 11
419.1987316483
 21
337.0029546717
 31
0.0
  0
LINE
  5
A8
  8
0
  6
CONTINUOUS
 62
     8
 10
580.6350921483
 20
337.0029546717
 30
0.0
 11
580.6350921483
 21
264.8139546117
 31
0.0
  0
LINE
  5
A9
  8
0
  6
CONTINUOUS
 62
     8
 10
580.6350640483
 20
264.8139600117
 30
0.0
 11
580.6350921483
 21
115.1919495917
 31
0.0
  0
LINE
  5
AA
  8
0
  6
CONTINUOUS
 62
     8
 10
580.6350922706
 20
115.1919495917
 30
0.0
 11
580.6350922706
 21
43.0029546717
 31
0.0
  0
LINE
  5
AB
  8
0
  6
CONTINUOUS
 62
     8
 10
419.1986597104
 20
43.0029546717
 30
0.0
 11
580.6350921483
 21
43.0029546717
 31
0.0
  0
LINE
  5
AC
  8
0
  6
CONTINUOUS
 62
     8
 10
419.1986596483
 20
43.0029796717
 30
0.0
 11
109.0715196483
 21
43.0029546717
 31
0.0
  0
LINE
  5
AD
  8
0
  6
CONTINUOUS
 62
     8
 10
36.6351376636
 20
43.0029546717
 30
0.0
 11
109.0715187483
 21
43.0029546717
 31
0.0
  0
LINE
  5
AE
  8
0
  6
CONTINUOUS
 62
     8
 10
36.6350808619
 20
43.0029546717
 30
0.0
 11
36.6350903905
 21
119.3603687517
 31
0.0
  0
LINE
  5
AF
  8
0
  6
CONTINUOUS
 62
     8
 10
36.6350903483
 20
119.3603742117
 30
0.0
 11
36.6350903483
 21
260.6455351317
 31
0.0
  0
POLYLINE
  5
B0
  8
0
  6
CONTINUOUS
 62
     8
 66
     1
 10
0.0
 20
0.0
 30
0.0
 70
   128
  0
VERTEX
  5
1E8
  8
0
  6
CONTINUOUS
 62
     8
 10
461.2872662198
 20
282.7289725672
 30
0.0
  0
VERTEX
  5
1E9
  8
0
  6
CONTINUOUS
 62
     8
 10
461.5800726983
 20
190.0029690097
 30
0.0
  0
VERTEX
  5
1EA
  8
0
  6
CONTINUOUS
 62
     8
 10
461.2872662809
 20
97.2769367533
 30
0.0
  0
SEQEND
  5
2D9
  8
0
  6
CONTINUOUS
 62
     8
  0
POLYLINE
  5
B1
  8
0
  6
CONTINUOUS
 62
     8
 66
     1
 10
0.0
 20
0.0
 30
0.0
 70
   128
  0
VERTEX
  5
1EB
  8
0
  6
CONTINUOUS
 62
     8
 10
66.9829180768
 20
282.7289725672
 30
0.0
  0
VERTEX
  5
1EC
  8
0
  6
CONTINUOUS
 62
     8
 10
66.6901115983
 20
190.0029690097
 30
0.0
  0
VERTEX
  5
1ED
  8
0
  6
CONTINUOUS
 62
     8
 10
66.9829180157
 20
97.2769367533
 30
0.0
  0
SEQEND
  5
2DA
  8
0
  6
CONTINUOUS
 62
     8
  0
LINE
  5
B2
  8
0
  6
CONTINUOUS
 62
     8
 10
419.1986646483
 20
40.0029546717
 30
0.0
 11
419.1986646483
 21
43.002979672
 31
0.0
  0
LINE
  5
B3
  8
0
  6
CONTINUOUS
 62
     8
 10
109.0715196483
 20
43.0029546717
 30
0.0
 11
109.0715196483
 21
40.0029546717
 31
0.0
  0
LINE
  5
B4
  8
0
  6
CONTINUOUS
 62
     8
 10
583.6350921483
 20
264.8139613317
 30
0.0
 11
580.6350640483
 21
264.8139613317
 31
0.0
  0
LINE
  5
B5
  8
0
  6
CONTINUOUS
 62
     8
 10
583.6350921483
 20
115.1919480117
 30
0.0
 11
580.6350921483
 21
115.1919480117
 31
0.0
  0
LINE
  5
B6
  8
0
  6
CONTINUOUS
 62
     8
 10
36.6350921483
 20
337.0029546717
 30
0.0
 11
36.6350921483
 21
340.0029546717
 31
0.0
  0
LINE
  5
B7
  8
0
  6
CONTINUOUS
 62
     8
 10
109.0714526483
 20
340.0029546717
 30
0.0
 11
109.0714526483
 21
337.0029690717
 31
0.0
  0
LINE
  5
B8
  8
0
  6
CONTINUOUS
 62
     8
 10
419.1987316483
 20
340.0029546717
 30
0.0
 11
419.1987316483
 21
337.0029546717
 31
0.0
  0
POLYLINE
  5
B9
  8
0
  6
CONTINUOUS
 62
     8
 66
     1
 10
0.0
 20
0.0
 30
0.0
 70
   128
  0
VERTEX
  5
1EE
  8
0
  6
CONTINUOUS
 62
     8
 10
429.1076999367
 20
307.9211778972
 30
0.0
  0
VERTEX
  5
1EF
  8
0
  6
CONTINUOUS
 62
     8
 10
264.1350864695
 20
308.5948895342
 30
0.0
  0
VERTEX
  5
1F0
  8
0
  6
CONTINUOUS
 62
     8
 10
99.1624841
 20
307.9211779225
 30
0.0
  0
SEQEND
  5
2DB
  8
0
  6
CONTINUOUS
 62
     8
  0
POLYLINE
  5
BA
  8
0
  6
CONTINUOUS
 62
     8
 66
     1
 10
0.0
 20
0.0
 30
0.0
 70
   128
  0
VERTEX
  5
1F1
  8
0
  6
CONTINUOUS
 62
     8
 10
429.1077000223
 20
72.0847314469
 30
0.0
  0
VERTEX
  5
1F2
  8
0
  6
CONTINUOUS
 62
     8
 10
264.1350866147
 20
71.4110198092
 30
0.0
  0
VERTEX
  5
1F3
  8
0
  6
CONTINUOUS
 62
     8
 10
99.1624842996
 20
72.0847314193
 30
0.0
  0
SEQEND
  5
2DC
  8
0
  6
CONTINUOUS
 62
     8
  0
LINE
  5
BB
  8
0
  6
CONTINUOUS
 62
     8
 10
33.6350921483
 20
119.3603742117
 30
0.0
 11
36.6350903483
 21
119.3603742117
 31
0.0
  0
LINE
  5
BC
  8
0
  6
CONTINUOUS
 62
     8
 10
36.6350903483
 20
260.6455351317
 30
0.0
 11
33.6350921483
 21
260.6455351317
 31
0.0
  0
LINE
  5
BD
  8
0
  6
CONTINUOUS
 62
     8
 10
580.6350921483
 20
43.0029546717
 30
0.0
 11
580.6350921483
 21
40.0029546717
 31
0.0
  0
LINE
  5
BE
  8
0
  6
CONTINUOUS
 62
     8
 10
583.6350921483
 20
337.0029546717
 30
0.0
 11
580.6350921483
 21
337.0029546717
 31
0.0
  0
LINE
  5
BF
  8
0
  6
CONTINUOUS
 62
     8
 10
580.6350921483
 20
43.0029546717
 30
0.0
 11
583.6350921483
 21
43.0029546717
 31
0.0
  0
LINE
  5
C0
  8
0
  6
CONTINUOUS
 62
     8
 10
36.6350921483
 20
40.0029546717
 30
0.0
 11
36.6350921483
 21
43.0029546717
 31
0.0
  0
LINE
  5
C1
  8
0
  6
CONTINUOUS
 62
     8
 10
580.6350921483
 20
340.0029546717
 30
0.0
 11
580.6350921483
 21
337.0029546717
 31
0.0
  0
LINE
  5
C2
  8
0
  6
CONTINUOUS
 62
     8
 10
36.6350921483
 20
43.0029546717
 30
0.0
 11
33.6350921483
 21
43.0029546717
 31
0.0
  0
LINE
  5
C3
  8
0
  6
CONTINUOUS
 62
     8
 10
33.6350921483
 20
337.0029546717
 30
0.0
 11
36.6350921483
 21
337.0029546717
 31
0.0
  0
POLYLINE
  5
C4
  8
0
  6
CONTINUOUS
 62
     8
 66
     1
 10
0.0
 20
0.0
 30
0.0
 70
   128
  0
VERTEX
  5
1F4
  8
0
  6
CONTINUOUS
 62
     8
 10
155.9350921483
 20
210.0029546717
 30
0.0
  0
VERTEX
  5
1F5
  8
0
  6
CONTINUOUS
 62
     8
 10
156.3471648314
 20
214.5765499713
 30
0.0
  0
VERTEX
  5
1F6
  8
0
  6
CONTINUOUS
 62
     8
 10
156.9397651429
 20
219.3773182814
 30
0.0
  0
VERTEX
  5
1F7
  8
0
  6
CONTINUOUS
 62
     8
 10
157.8934658706
 20
224.3401728498
 30
0.0
  0
VERTEX
  5
1F8
  8
0
  6
CONTINUOUS
 62
     8
 10
159.4714595476
 20
229.2968643328
 30
0.0
  0
VERTEX
  5
1F9
  8
0
  6
CONTINUOUS
 62
     8
 10
161.9426112674
 20
233.9808904869
 30
0.0
  0
VERTEX
  5
1FA
  8
0
  6
CONTINUOUS
 62
     8
 10
165.419013589
 20
238.0647584543
 30
0.0
  0
VERTEX
  5
1FB
  8
0
  6
CONTINUOUS
 62
     8
 10
169.7393267643
 20
241.3153850238
 30
0.0
  0
VERTEX
  5
1FC
  8
0
  6
CONTINUOUS
 62
     8
 10
174.5929584831
 20
243.720449679
 30
0.0
  0
VERTEX
  5
1FD
  8
0
  6
CONTINUOUS
 62
     8
 10
181.4303943974
 20
245.8562476035
 30
0.0
  0
VERTEX
  5
1FE
  8
0
  6
CONTINUOUS
 62
     8
 10
188.3550075596
 20
247.1239376681
 30
0.0
  0
VERTEX
  5
1FF
  8
0
  6
CONTINUOUS
 62
     8
 10
195.1880931044
 20
247.840259873
 30
0.0
  0
VERTEX
  5
200
  8
0
  6
CONTINUOUS
 62
     8
 10
201.8363102509
 20
248.2429399676
 30
0.0
  0
VERTEX
  5
201
  8
0
  6
CONTINUOUS
 62
     8
 10
208.1449610262
 20
248.4995700909
 30
0.0
  0
VERTEX
  5
202
  8
0
  6
CONTINUOUS
 62
     8
 10
214.1350921483
 20
248.7029546717
 30
0.0
  0
SEQEND
  5
2DD
  8
0
  6
CONTINUOUS
 62
     8
  0
POLYLINE
  5
C5
  8
0
  6
CONTINUOUS
 62
     8
 66
     1
 10
0.0
 20
0.0
 30
0.0
 70
   128
  0
VERTEX
  5
203
  8
0
  6
CONTINUOUS
 62
     8
 10
314.1350921483
 20
248.7029546717
 30
0.0
  0
VERTEX
  5
204
  8
0
  6
CONTINUOUS
 62
     8
 10
320.1252232704
 20
248.4995700909
 30
0.0
  0
VERTEX
  5
205
  8
0
  6
CONTINUOUS
 62
     8
 10
326.4338740457
 20
248.2429399676
 30
0.0
  0
VERTEX
  5
206
  8
0
  6
CONTINUOUS
 62
     8
 10
333.0820911922
 20
247.840259873
 30
0.0
  0
VERTEX
  5
207
  8
0
  6
CONTINUOUS
 62
     8
 10
339.915176737
 20
247.1239376681
 30
0.0
  0
VERTEX
  5
208
  8
0
  6
CONTINUOUS
 62
     8
 10
346.8397898992
 20
245.8562476035
 30
0.0
  0
VERTEX
  5
209
  8
0
  6
CONTINUOUS
 62
     8
 10
353.6772258135
 20
243.720449679
 30
0.0
  0
VERTEX
  5
20A
  8
0
  6
CONTINUOUS
 62
     8
 10
358.5308575323
 20
241.3153850238
 30
0.0
  0
VERTEX
  5
20B
  8
0
  6
CONTINUOUS
 62
     8
 10
362.8511707076
 20
238.0647584543
 30
0.0
  0
VERTEX
  5
20C
  8
0
  6
CONTINUOUS
 62
     8
 10
366.3275730292
 20
233.9808904869
 30
0.0
  0
VERTEX
  5
20D
  8
0
  6
CONTINUOUS
 62
     8
 10
368.798724749
 20
229.2968643328
 30
0.0
  0
VERTEX
  5
20E
  8
0
  6
CONTINUOUS
 62
     8
 10
370.376718426
 20
224.3401728498
 30
0.0
  0
VERTEX
  5
20F
  8
0
  6
CONTINUOUS
 62
     8
 10
371.3304191537
 20
219.3773182814
 30
0.0
  0
VERTEX
  5
210
  8
0
  6
CONTINUOUS
 62
     8
 10
371.9230194652
 20
214.5765499713
 30
0.0
  0
VERTEX
  5
211
  8
0
  6
CONTINUOUS
 62
     8
 10
372.3350921483
 20
210.0029546717
 30
0.0
  0
SEQEND
  5
2DE
  8
0
  6
CONTINUOUS
 62
     8
  0
POLYLINE
  5
C6
  8
0
  6
CONTINUOUS
 62
     8
 66
     1
 10
0.0
 20
0.0
 30
0.0
 70
   128
  0
VERTEX
  5
212
  8
0
  6
CONTINUOUS
 62
     8
 10
264.135092149
 20
249.5030012317
 30
0.0
  0
VERTEX
  5
213
  8
0
  6
CONTINUOUS
 62
     8
 10
254.9318595629
 20
249.4758397957
 30
0.0
  0
VERTEX
  5
214
  8
0
  6
CONTINUOUS
 62
     8
 10
245.4955462438
 20
249.3917324386
 30
0.0
  0
VERTEX
  5
215
  8
0
  6
CONTINUOUS
 62
     8
 10
235.6685874325
 20
249.2436507951
 30
0.0
  0
VERTEX
  5
216
  8
0
  6
CONTINUOUS
 62
     8
 10
225.3378243282
 20
249.0213214777
 30
0.0
  0
VERTEX
  5
217
  8
0
  6
CONTINUOUS
 62
     8
 10
214.1350921483
 20
248.7029546717
 30
0.0
  0
SEQEND
  5
2DF
  8
0
  6
CONTINUOUS
 62
     8
  0
POLYLINE
  5
C7
  8
0
  6
CONTINUOUS
 62
     8
 66
     1
 10
0.0
 20
0.0
 30
0.0
 70
   128
  0
VERTEX
  5
218
  8
0
  6
CONTINUOUS
 62
     8
 10
264.1350921476
 20
249.5030012317
 30
0.0
  0
VERTEX
  5
219
  8
0
  6
CONTINUOUS
 62
     8
 10
273.3383247336
 20
249.4758397957
 30
0.0
  0
VERTEX
  5
21A
  8
0
  6
CONTINUOUS
 62
     8
 10
282.7746380528
 20
249.3917324386
 30
0.0
  0
VERTEX
  5
21B
  8
0
  6
CONTINUOUS
 62
     8
 10
292.6015968641
 20
249.2436507951
 30
0.0
  0
VERTEX
  5
21C
  8
0
  6
CONTINUOUS
 62
     8
 10
302.9323599684
 20
249.0213214777
 30
0.0
  0
VERTEX
  5
21D
  8
0
  6
CONTINUOUS
 62
     8
 10
314.1350921483
 20
248.7029546717
 30
0.0
  0
SEQEND
  5
2E0
  8
0
  6
CONTINUOUS
 62
     8
  0
ARC
  5
C8
  8
0
  6
CONTINUOUS
 62
     8
 10
405.6558406001
 20
190.0029546717
 30
0.0
 40
250.5203628596635
 50
175.4209856675
 51
184.5790143325
  0
ARC
  5
C9
  8
0
  6
CONTINUOUS
 62
     8
 10
122.6143592739
 20
190.0029546717
 30
0.0
 40
250.5203473319528
 50
355.4209853831
 51
4.5790146169
  0
POLYLINE
  5
CA
  8
0
  6
CONTINUOUS
 62
     8
 66
     1
 10
0.0
 20
0.0
 30
0.0
 70
   128
  0
VERTEX
  5
21E
  8
0
  6
CONTINUOUS
 62
     8
 10
155.9350921483
 20
170.0029546717
 30
0.0
  0
VERTEX
  5
21F
  8
0
  6
CONTINUOUS
 62
     8
 10
156.3471647239
 20
165.4294671078
 30
0.0
  0
VERTEX
  5
220
  8
0
  6
CONTINUOUS
 62
     8
 10
156.9399162549
 20
160.6276922593
 30
0.0
  0
VERTEX
  5
221
  8
0
  6
CONTINUOUS
 62
     8
 10
157.8936367506
 20
155.6650241704
 30
0.0
  0
VERTEX
  5
222
  8
0
  6
CONTINUOUS
 62
     8
 10
159.4720148493
 20
150.7078203812
 30
0.0
  0
VERTEX
  5
223
  8
0
  6
CONTINUOUS
 62
     8
 10
161.9435981007
 20
146.0235901732
 30
0.0
  0
VERTEX
  5
224
  8
0
  6
CONTINUOUS
 62
     8
 10
165.4198761977
 20
141.9403696947
 30
0.0
  0
VERTEX
  5
225
  8
0
  6
CONTINUOUS
 62
     8
 10
169.7395397314
 20
138.6907598272
 30
0.0
  0
VERTEX
  5
226
  8
0
  6
CONTINUOUS
 62
     8
 10
174.5908564042
 20
136.2864062346
 30
0.0
  0
VERTEX
  5
227
  8
0
  6
CONTINUOUS
 62
     8
 10
181.4289470088
 20
134.149756441
 30
0.0
  0
VERTEX
  5
228
  8
0
  6
CONTINUOUS
 62
     8
 10
188.3541838913
 20
132.8820548077
 30
0.0
  0
VERTEX
  5
229
  8
0
  6
CONTINUOUS
 62
     8
 10
195.1861848366
 20
132.1658046517
 30
0.0
  0
VERTEX
  5
22A
  8
0
  6
CONTINUOUS
 62
     8
 10
201.8336556698
 20
131.7630966385
 30
0.0
  0
VERTEX
  5
22B
  8
0
  6
CONTINUOUS
 62
     8
 10
208.1443368617
 20
131.5063681498
 30
0.0
  0
VERTEX
  5
22C
  8
0
  6
CONTINUOUS
 62
     8
 10
214.1350921483
 20
131.3029546717
 30
0.0
  0
SEQEND
  5
2E1
  8
0
  6
CONTINUOUS
 62
     8
  0
POLYLINE
  5
CB
  8
0
  6
CONTINUOUS
 62
     8
 66
     1
 10
0.0
 20
0.0
 30
0.0
 70
   128
  0
VERTEX
  5
22D
  8
0
  6
CONTINUOUS
 62
     8
 10
372.3350921483
 20
170.0029546717
 30
0.0
  0
VERTEX
  5
22E
  8
0
  6
CONTINUOUS
 62
     8
 10
371.9230195726
 20
165.4294671078
 30
0.0
  0
VERTEX
  5
22F
  8
0
  6
CONTINUOUS
 62
     8
 10
371.3302680417
 20
160.6276922593
 30
0.0
  0
VERTEX
  5
230
  8
0
  6
CONTINUOUS
 62
     8
 10
370.3765475459
 20
155.6650241704
 30
0.0
  0
VERTEX
  5
231
  8
0
  6
CONTINUOUS
 62
     8
 10
368.7981694473
 20
150.7078203812
 30
0.0
  0
VERTEX
  5
232
  8
0
  6
CONTINUOUS
 62
     8
 10
366.3265861959
 20
146.0235901732
 30
0.0
  0
VERTEX
  5
233
  8
0
  6
CONTINUOUS
 62
     8
 10
362.8503080989
 20
141.9403696947
 30
0.0
  0
VERTEX
  5
234
  8
0
  6
CONTINUOUS
 62
     8
 10
358.5306445652
 20
138.6907598272
 30
0.0
  0
VERTEX
  5
235
  8
0
  6
CONTINUOUS
 62
     8
 10
353.6793278924
 20
136.2864062346
 30
0.0
  0
VERTEX
  5
236
  8
0
  6
CONTINUOUS
 62
     8
 10
346.8412372877
 20
134.149756441
 30
0.0
  0
VERTEX
  5
237
  8
0
  6
CONTINUOUS
 62
     8
 10
339.9160004052
 20
132.8820548077
 30
0.0
  0
VERTEX
  5
238
  8
0
  6
CONTINUOUS
 62
     8
 10
333.08399946
 20
132.1658046517
 30
0.0
  0
VERTEX
  5
239
  8
0
  6
CONTINUOUS
 62
     8
 10
326.4365286268
 20
131.7630966385
 30
0.0
  0
VERTEX
  5
23A
  8
0
  6
CONTINUOUS
 62
     8
 10
320.1258474348
 20
131.5063681498
 30
0.0
  0
VERTEX
  5
23B
  8
0
  6
CONTINUOUS
 62
     8
 10
314.1350921483
 20
131.3029546717
 30
0.0
  0
SEQEND
  5
2E2
  8
0
  6
CONTINUOUS
 62
     8
  0
POLYLINE
  5
CC
  8
0
  6
CONTINUOUS
 62
     8
 66
     1
 10
0.0
 20
0.0
 30
0.0
 70
   128
  0
VERTEX
  5
23C
  8
0
  6
CONTINUOUS
 62
     8
 10
214.1350921483
 20
131.3029546717
 30
0.0
  0
VERTEX
  5
23D
  8
0
  6
CONTINUOUS
 62
     8
 10
225.3411259037
 20
130.9845563988
 30
0.0
  0
VERTEX
  5
23E
  8
0
  6
CONTINUOUS
 62
     8
 10
235.6674131748
 20
130.7623458324
 30
0.0
  0
VERTEX
  5
23F
  8
0
  6
CONTINUOUS
 62
     8
 10
245.4968404768
 20
130.6141092178
 30
0.0
  0
VERTEX
  5
240
  8
0
  6
CONTINUOUS
 62
     8
 10
254.9313665754
 20
130.5300752392
 30
0.0
  0
VERTEX
  5
241
  8
0
  6
CONTINUOUS
 62
     8
 10
264.1350921476
 20
130.5029081117
 30
0.0
  0
SEQEND
  5
2E3
  8
0
  6
CONTINUOUS
 62
     8
  0
POLYLINE
  5
CD
  8
0
  6
CONTINUOUS
 62
     8
 66
     1
 10
0.0
 20
0.0
 30
0.0
 70
   128
  0
VERTEX
  5
242
  8
0
  6
CONTINUOUS
 62
     8
 10
314.1350921483
 20
131.3029546717
 30
0.0
  0
VERTEX
  5
243
  8
0
  6
CONTINUOUS
 62
     8
 10
302.9290583929
 20
130.9845563988
 30
0.0
  0
VERTEX
  5
244
  8
0
  6
CONTINUOUS
 62
     8
 10
292.6027711218
 20
130.7623458324
 30
0.0
  0
VERTEX
  5
245
  8
0
  6
CONTINUOUS
 62
     8
 10
282.7733438198
 20
130.6141092178
 30
0.0
  0
VERTEX
  5
246
  8
0
  6
CONTINUOUS
 62
     8
 10
273.3388177212
 20
130.5300752392
 30
0.0
  0
VERTEX
  5
247
  8
0
  6
CONTINUOUS
 62
     8
 10
264.135092149
 20
130.5029081117
 30
0.0
  0
SEQEND
  5
2E4
  8
0
  6
CONTINUOUS
 62
     8
  0
POLYLINE
  5
CE
  8
0
  6
CONTINUOUS
 62
     8
 66
     1
 10
0.0
 20
0.0
 30
0.0
 70
   128
  0
VERTEX
  5
248
  8
0
  6
CONTINUOUS
 62
     8
 10
290.9217126483
 20
238.7781603017
 30
0.0
  0
VERTEX
  5
249
  8
0
  6
CONTINUOUS
 62
     8
 10
281.3997997194
 20
238.7696544103
 30
0.0
  0
VERTEX
  5
24A
  8
0
  6
CONTINUOUS
 62
     8
 10
272.5592877171
 20
238.7635911751
 30
0.0
  0
VERTEX
  5
24B
  8
0
  6
CONTINUOUS
 62
     8
 10
264.1411785808
 20
238.7611759363
 30
0.0
  0
VERTEX
  5
24C
  8
0
  6
CONTINUOUS
 62
     8
 10
255.7111362841
 20
238.7635925895
 30
0.0
  0
VERTEX
  5
24D
  8
0
  6
CONTINUOUS
 62
     8
 10
246.8700364136
 20
238.7696563981
 30
0.0
  0
VERTEX
  5
24E
  8
0
  6
CONTINUOUS
 62
     8
 10
237.3484513883
 20
238.7781598317
 30
0.0
  0
SEQEND
  5
2E5
  8
0
  6
CONTINUOUS
 62
     8
  0
ARC
  5
CF
  8
0
  6
CONTINUOUS
 62
     8
 10
237.3012995154
 20
216.8579938335
 30
0.0
 40
21.92021648483973
 50
89.8767732623
 51
180.0111854577
  0
LINE
  5
D0
  8
0
  6
CONTINUOUS
 62
     8
 10
215.3810865683
 20
216.8537115817
 30
0.0
 11
215.3810865583
 21
163.1521977617
 31
0.0
  0
ARC
  5
D1
  8
0
  6
CONTINUOUS
 62
     8
 10
237.3014870694
 20
163.1481047811
 30
0.0
 40
21.92040241324827
 50
179.989301724
 51
270.1228088568
  0
POLYLINE
  5
D2
  8
0
  6
CONTINUOUS
 62
     8
 66
     1
 10
0.0
 20
0.0
 30
0.0
 70
   128
  0
VERTEX
  5
24F
  8
0
  6
CONTINUOUS
 62
     8
 10
237.3485075283
 20
141.2277467017
 30
0.0
  0
VERTEX
  5
250
  8
0
  6
CONTINUOUS
 62
     8
 10
246.8690287625
 20
141.2362516458
 30
0.0
  0
VERTEX
  5
251
  8
0
  6
CONTINUOUS
 62
     8
 10
255.7080048852
 20
141.2423157365
 30
0.0
  0
VERTEX
  5
252
  8
0
  6
CONTINUOUS
 62
     8
 10
264.133683925
 20
141.244732085
 30
0.0
  0
VERTEX
  5
253
  8
0
  6
CONTINUOUS
 62
     8
 10
272.5598854343
 20
141.2423156761
 30
0.0
  0
VERTEX
  5
254
  8
0
  6
CONTINUOUS
 62
     8
 10
281.4005757091
 20
141.2362527614
 30
0.0
  0
VERTEX
  5
255
  8
0
  6
CONTINUOUS
 62
     8
 10
290.9217330883
 20
141.2277495417
 30
0.0
  0
SEQEND
  5
2E6
  8
0
  6
CONTINUOUS
 62
     8
  0
ARC
  5
D3
  8
0
  6
CONTINUOUS
 62
     8
 10
290.9688549179
 20
163.1479454316
 30
0.0
 40
21.92024634222998
 50
269.8768514876
 51
0.0111072323
  0
LINE
  5
D4
  8
0
  6
CONTINUOUS
 62
     8
 10
312.8890977283
 20
163.1521977617
 30
0.0
 11
312.8890977383
 21
216.8537115817
 31
0.0
  0
ARC
  5
D5
  8
0
  6
CONTINUOUS
 62
     8
 10
290.9687593021
 20
216.8578667589
 30
0.0
 40
21.92034034996804
 50
359.9891391233
 51
90.1229714575
  0
ARC
  5
D6
  8
0
  6
CONTINUOUS
 62
     8
 10
157.3356037272
 20
144.5248622057
 30
0.0
 40
80.08080759660439
 50
357.6403307884
 51
3.4595747963
  0
ARC
  5
D7
  8
0
  6
CONTINUOUS
 62
     8
 10
217.2146666588
 20
-236.0346826792
 30
0.0
 40
399.1910915059995
 50
89.0983555108
 51
90.2631743541
  0
ARC
  5
D8
  8
0
  6
CONTINUOUS
 62
     8
 10
237.2367609821
 20
163.097646596
 30
0.0
 40
13.74042028478426
 50
179.9610747281
 51
270.1404292858
  0
ARC
  5
D9
  8
0
  6
CONTINUOUS
 62
     8
 10
218.9025247379
 20
313.14774271
 30
0.0
 40
96.35839848044111
 50
267.9056471869
 51
272.7325723775
  0
ARC
  5
DA
  8
0
  6
CONTINUOUS
 62
     8
 10
151.8829097257
 20
235.5333982507
 30
0.0
 40
85.52711435214084
 50
356.7258543871
 51
2.1742317872
  0
ARC
  5
DB
  8
0
  6
CONTINUOUS
 62
     8
 10
237.2371424429
 20
216.9078824079
 30
0.0
 40
13.74080222898101
 50
89.8613108701
 51
180.0373809234
  0
ARC
  5
DC
  8
0
  6
CONTINUOUS
 62
     8
 10
370.6464967465
 20
235.4785798189
 30
0.0
 40
79.79303497714429
 50
177.6300443247
 51
183.4702830094
  0
ARC
  5
DD
  8
0
  6
CONTINUOUS
 62
     8
 10
309.3684207059
 20
313.2463711495
 30
0.0
 40
96.45693337456646
 50
267.2697689914
 51
272.0917608735
  0
ARC
  5
DE
  8
0
  6
CONTINUOUS
 62
     8
 10
291.0330188926
 20
216.9078576085
 30
0.0
 40
13.74082443726131
 50
359.9627652007
 51
90.1387388132
  0
ARC
  5
DF
  8
0
  6
CONTINUOUS
 62
     8
 10
309.3683483555
 20
66.7344952662
 30
0.0
 40
96.48196220357829
 50
87.9087399162
 51
92.7294796482
  0
ARC
  5
E0
  8
0
  6
CONTINUOUS
 62
     8
 10
370.6262900307
 20
144.5277470369
 30
0.0
 40
79.77283472582327
 50
176.5291404275
 51
182.370855784
  0
ARC
  5
E1
  8
0
  6
CONTINUOUS
 62
     8
 10
291.0330446927
 20
163.0980240915
 30
0.0
 40
13.74079939180977
 50
269.8612990034
 51
0.0373927901
  0
LINE
  5
E2
  8
0
  6
CONTINUOUS
 62
     8
 10
223.4963446283
 20
163.1069992317
 30
0.0
 11
223.4963446283
 21
216.8989101117
 31
0.0
  0
LINE
  5
E3
  8
0
  6
CONTINUOUS
 62
     8
 10
304.7738396683
 20
216.8989101117
 30
0.0
 11
304.7738396683
 21
163.1069992317
 31
0.0
  0
POLYLINE
  5
E4
  8
0
  6
CONTINUOUS
 62
     8
 66
     1
 10
0.0
 20
0.0
 30
0.0
 70
   128
  0
VERTEX
  5
256
  8
0
  6
CONTINUOUS
 62
     8
 10
290.9997671283
 20
149.3572659317
 30
0.0
  0
VERTEX
  5
257
  8
0
  6
CONTINUOUS
 62
     8
 10
282.4653998539
 20
149.3649682019
 30
0.0
  0
VERTEX
  5
258
  8
0
  6
CONTINUOUS
 62
     8
 10
273.3098748024
 20
149.3714783875
 30
0.0
  0
VERTEX
  5
259
  8
0
  6
CONTINUOUS
 62
     8
 10
264.1335674406
 20
149.374274448
 30
0.0
  0
VERTEX
  5
25A
  8
0
  6
CONTINUOUS
 62
     8
 10
254.9578326922
 20
149.3714843236
 30
0.0
  0
VERTEX
  5
25B
  8
0
  6
CONTINUOUS
 62
     8
 10
245.804186033
 20
149.3649802467
 30
0.0
  0
VERTEX
  5
25C
  8
0
  6
CONTINUOUS
 62
     8
 10
237.2704738983
 20
149.3572814817
 30
0.0
  0
SEQEND
  5
2E7
  8
0
  6
CONTINUOUS
 62
     8
  0
POLYLINE
  5
E5
  8
0
  6
CONTINUOUS
 62
     8
 66
     1
 10
0.0
 20
0.0
 30
0.0
 70
   128
  0
VERTEX
  5
25D
  8
0
  6
CONTINUOUS
 62
     8
 10
237.2704173483
 20
230.6486432517
 30
0.0
  0
VERTEX
  5
25E
  8
0
  6
CONTINUOUS
 62
     8
 10
245.8052289428
 20
230.640942704
 30
0.0
  0
VERTEX
  5
25F
  8
0
  6
CONTINUOUS
 62
     8
 10
254.9612088352
 20
230.6344348244
 30
0.0
  0
VERTEX
  5
260
  8
0
  6
CONTINUOUS
 62
     8
 10
264.1418116212
 20
230.6316419079
 30
0.0
  0
VERTEX
  5
261
  8
0
  6
CONTINUOUS
 62
     8
 10
273.3092642437
 20
230.634433123
 30
0.0
  0
VERTEX
  5
262
  8
0
  6
CONTINUOUS
 62
     8
 10
282.4646409999
 20
230.6409394838
 30
0.0
  0
VERTEX
  5
263
  8
0
  6
CONTINUOUS
 62
     8
 10
290.9997760583
 20
230.6486404317
 30
0.0
  0
SEQEND
  5
2E8
  8
0
  6
CONTINUOUS
 62
     8
  0
POLYLINE
  5
E6
  8
0
  6
CONTINUOUS
 62
     8
 66
     1
 10
0.0
 20
0.0
 30
0.0
 70
   128
  0
VERTEX
  5
264
  8
0
  6
CONTINUOUS
 62
     8
 10
223.4963431983
 20
163.1069992717
 30
0.0
  0
VERTEX
  5
265
  8
0
  6
CONTINUOUS
 62
     8
 10
224.0055242702
 20
163.0907566758
 30
0.0
  0
VERTEX
  5
266
  8
0
  6
CONTINUOUS
 62
     8
 10
224.2181464983
 20
163.0736359017
 30
0.0
  0
SEQEND
  5
2E9
  8
0
  6
CONTINUOUS
 62
     8
  0
ARC
  5
E7
  8
0
  6
CONTINUOUS
 62
     8
 10
237.1674288613
 20
163.0411778312
 30
0.0
 40
12.94932303912675
 50
179.856385352
 51
270.1958615342
  0
POLYLINE
  5
E8
  8
0
  6
CONTINUOUS
 62
     8
 66
     1
 10
0.0
 20
0.0
 30
0.0
 70
   128
  0
VERTEX
  5
267
  8
0
  6
CONTINUOUS
 62
     8
 10
237.2704380749
 20
149.3572675836
 30
0.0
  0
VERTEX
  5
268
  8
0
  6
CONTINUOUS
 62
     8
 10
237.241870838
 20
149.8757134305
 30
0.0
  0
VERTEX
  5
269
  8
0
  6
CONTINUOUS
 62
     8
 10
237.2117277383
 20
150.0919325217
 30
0.0
  0
SEQEND
  5
2EA
  8
0
  6
CONTINUOUS
 62
     8
  0
POLYLINE
  5
E9
  8
0
  6
CONTINUOUS
 62
     8
 66
     1
 10
0.0
 20
0.0
 30
0.0
 70
   128
  0
VERTEX
  5
26A
  8
0
  6
CONTINUOUS
 62
     8
 10
304.7738410983
 20
216.8989100717
 30
0.0
  0
VERTEX
  5
26B
  8
0
  6
CONTINUOUS
 62
     8
 10
304.2646600264
 20
216.9151526677
 30
0.0
  0
VERTEX
  5
26C
  8
0
  6
CONTINUOUS
 62
     8
 10
304.0520377983
 20
216.9322734417
 30
0.0
  0
SEQEND
  5
2EB
  8
0
  6
CONTINUOUS
 62
     8
  0
ARC
  5
EA
  8
0
  6
CONTINUOUS
 62
     8
 10
291.1027554352
 20
216.964731512
 30
0.0
 40
12.94932303940499
 50
359.8563851817
 51
90.1958615212
  0
POLYLINE
  5
EB
  8
0
  6
CONTINUOUS
 62
     8
 66
     1
 10
0.0
 20
0.0
 30
0.0
 70
   128
  0
VERTEX
  5
26D
  8
0
  6
CONTINUOUS
 62
     8
 10
290.9997462217
 20
230.6486417598
 30
0.0
  0
VERTEX
  5
26E
  8
0
  6
CONTINUOUS
 62
     8
 10
291.0283134586
 20
230.1301959129
 30
0.0
  0
VERTEX
  5
26F
  8
0
  6
CONTINUOUS
 62
     8
 10
291.0584565583
 20
229.9139768217
 30
0.0
  0
SEQEND
  5
2EC
  8
0
  6
CONTINUOUS
 62
     8
  0
POLYLINE
  5
EC
  8
0
  6
CONTINUOUS
 62
     8
 66
     1
 10
0.0
 20
0.0
 30
0.0
 70
   128
  0
VERTEX
  5
270
  8
0
  6
CONTINUOUS
 62
     8
 10
237.2116948183
 20
229.9139788817
 30
0.0
  0
VERTEX
  5
271
  8
0
  6
CONTINUOUS
 62
     8
 10
237.2418372958
 20
230.1301982098
 30
0.0
  0
VERTEX
  5
272
  8
0
  6
CONTINUOUS
 62
     8
 10
237.2704031483
 20
230.6486443817
 30
0.0
  0
SEQEND
  5
2ED
  8
0
  6
CONTINUOUS
 62
     8
  0
ARC
  5
ED
  8
0
  6
CONTINUOUS
 62
     8
 10
237.1668434822
 20
216.9653174133
 30
0.0
 40
12.94873914681054
 50
89.8015407262
 51
180.1462088961
  0
POLYLINE
  5
EE
  8
0
  6
CONTINUOUS
 62
     8
 66
     1
 10
0.0
 20
0.0
 30
0.0
 70
   128
  0
VERTEX
  5
273
  8
0
  6
CONTINUOUS
 62
     8
 10
223.4963431432
 20
216.8989112075
 30
0.0
  0
VERTEX
  5
274
  8
0
  6
CONTINUOUS
 62
     8
 10
224.005524187
 20
216.915153763
 30
0.0
  0
VERTEX
  5
275
  8
0
  6
CONTINUOUS
 62
     8
 10
224.2181464783
 20
216.9322745117
 30
0.0
  0
SEQEND
  5
2EE
  8
0
  6
CONTINUOUS
 62
     8
  0
POLYLINE
  5
EF
  8
0
  6
CONTINUOUS
 62
     8
 66
     1
 10
0.0
 20
0.0
 30
0.0
 70
   128
  0
VERTEX
  5
276
  8
0
  6
CONTINUOUS
 62
     8
 10
290.9997767683
 20
149.3572650017
 30
0.0
  0
VERTEX
  5
277
  8
0
  6
CONTINUOUS
 62
     8
 10
291.0283448367
 20
149.8757110214
 30
0.0
  0
VERTEX
  5
278
  8
0
  6
CONTINUOUS
 62
     8
 10
291.0584896583
 20
150.0919302817
 30
0.0
  0
SEQEND
  5
2EF
  8
0
  6
CONTINUOUS
 62
     8
  0
ARC
  5
F0
  8
0
  6
CONTINUOUS
 62
     8
 10
291.1033408144
 20
163.0405919302
 30
0.0
 40
12.94873914681883
 50
269.8015407234
 51
0.1462088961
  0
POLYLINE
  5
F1
  8
0
  6
CONTINUOUS
 62
     8
 66
     1
 10
0.0
 20
0.0
 30
0.0
 70
   128
  0
VERTEX
  5
279
  8
0
  6
CONTINUOUS
 62
     8
 10
304.7738411534
 20
163.106998136
 30
0.0
  0
VERTEX
  5
27A
  8
0
  6
CONTINUOUS
 62
     8
 10
304.2646601096
 20
163.0907555805
 30
0.0
  0
VERTEX
  5
27B
  8
0
  6
CONTINUOUS
 62
     8
 10
304.0520378183
 20
163.0736348317
 30
0.0
  0
SEQEND
  5
2F0
  8
0
  6
CONTINUOUS
 62
     8
  0
POLYLINE
  5
F2
  8
0
  6
CONTINUOUS
 62
     8
 66
     1
 10
0.0
 20
0.0
 30
0.0
 70
   128
  0
VERTEX
  5
27C
  8
0
  6
CONTINUOUS
 62
     8
 10
304.0520377983
 20
163.0736359017
 30
0.0
  0
VERTEX
  5
27D
  8
0
  6
CONTINUOUS
 62
     8
 10
304.0446968059
 20
193.2345173437
 30
0.0
  0
VERTEX
  5
27E
  8
0
  6
CONTINUOUS
 62
     8
 10
304.0520377983
 20
216.9322734417
 30
0.0
  0
SEQEND
  5
2F1
  8
0
  6
CONTINUOUS
 62
     8
  0
POLYLINE
  5
F3
  8
0
  6
CONTINUOUS
 62
     8
 66
     1
 10
0.0
 20
0.0
 30
0.0
 70
   128
  0
VERTEX
  5
27F
  8
0
  6
CONTINUOUS
 62
     8
 10
224.2181464983
 20
216.9322734417
 30
0.0
  0
VERTEX
  5
280
  8
0
  6
CONTINUOUS
 62
     8
 10
224.2254874906
 20
186.7713920003
 30
0.0
  0
VERTEX
  5
281
  8
0
  6
CONTINUOUS
 62
     8
 10
224.2181464983
 20
163.0736359017
 30
0.0
  0
SEQEND
  5
2F2
  8
0
  6
CONTINUOUS
 62
     8
  0
POLYLINE
  5
F4
  8
0
  6
CONTINUOUS
 62
     8
 66
     1
 10
0.0
 20
0.0
 30
0.0
 70
   128
  0
VERTEX
  5
282
  8
0
  6
CONTINUOUS
 62
     8
 10
237.2116917983
 20
150.0919274417
 30
0.0
  0
VERTEX
  5
283
  8
0
  6
CONTINUOUS
 62
     8
 10
246.1721569941
 20
150.0999855889
 30
0.0
  0
VERTEX
  5
284
  8
0
  6
CONTINUOUS
 62
     8
 10
253.9013117454
 20
150.1055645378
 30
0.0
  0
VERTEX
  5
285
  8
0
  6
CONTINUOUS
 62
     8
 10
260.589749267
 20
150.1085047285
 30
0.0
  0
VERTEX
  5
286
  8
0
  6
CONTINUOUS
 62
     8
 10
266.7925127999
 20
150.1087003961
 30
0.0
  0
VERTEX
  5
287
  8
0
  6
CONTINUOUS
 62
     8
 10
271.8911063467
 20
150.106918118
 30
0.0
  0
VERTEX
  5
288
  8
0
  6
CONTINUOUS
 62
     8
 10
277.5480560267
 20
150.1034787884
 30
0.0
  0
VERTEX
  5
289
  8
0
  6
CONTINUOUS
 62
     8
 10
283.9235557655
 20
150.0984537204
 30
0.0
  0
VERTEX
  5
28A
  8
0
  6
CONTINUOUS
 62
     8
 10
291.0584896583
 20
150.0919302817
 30
0.0
  0
SEQEND
  5
2F3
  8
0
  6
CONTINUOUS
 62
     8
  0
POLYLINE
  5
F5
  8
0
  6
CONTINUOUS
 62
     8
 66
     1
 10
0.0
 20
0.0
 30
0.0
 70
   128
  0
VERTEX
  5
28B
  8
0
  6
CONTINUOUS
 62
     8
 10
291.0584852683
 20
229.9139795917
 30
0.0
  0
VERTEX
  5
28C
  8
0
  6
CONTINUOUS
 62
     8
 10
282.1020740018
 20
229.9059262254
 30
0.0
  0
VERTEX
  5
28D
  8
0
  6
CONTINUOUS
 62
     8
 10
274.3682721598
 20
229.900345287
 30
0.0
  0
VERTEX
  5
28E
  8
0
  6
CONTINUOUS
 62
     8
 10
267.6731048776
 20
229.8974026346
 30
0.0
  0
VERTEX
  5
28F
  8
0
  6
CONTINUOUS
 62
     8
 10
261.4933670717
 20
229.8972047854
 30
0.0
  0
VERTEX
  5
290
  8
0
  6
CONTINUOUS
 62
     8
 10
254.5824821276
 20
229.8999475685
 30
0.0
  0
VERTEX
  5
291
  8
0
  6
CONTINUOUS
 62
     8
 10
246.5654125348
 20
229.9056018753
 30
0.0
  0
VERTEX
  5
292
  8
0
  6
CONTINUOUS
 62
     8
 10
237.2116946083
 20
229.9139790917
 30
0.0
  0
SEQEND
  5
2F4
  8
0
  6
CONTINUOUS
 62
     8
  0
LINE
  5
F6
  8
0
  6
CONTINUOUS
 62
     8
 10
291.0584894826
 20
229.9139788818
 30
0.0
 11
291.0510688026
 21
229.9065582098
 31
0.0
  0
LINE
  5
F7
  8
0
  6
CONTINUOUS
 62
     8
 10
304.0386957906
 20
216.9189314291
 30
0.0
 11
304.0520377881
 21
216.9322734314
 31
0.0
  0
ARC
  5
F8
  8
0
  6
CONTINUOUS
 62
     8
 10
291.0772580991
 20
216.94512052
 30
0.0
 40
12.96146414735178
 50
359.8842310583
 51
90.1157690855
  0
LINE
  5
F9
  8
0
  6
CONTINUOUS
 62
     8
 10
237.211691804
 20
150.0919274462
 30
0.0
 11
237.219115494
 21
150.0993511336
 31
0.0
  0
LINE
  5
FA
  8
0
  6
CONTINUOUS
 62
     8
 10
224.231488506
 20
163.0869779124
 30
0.0
 11
224.2181465085
 21
163.0736359101
 31
0.0
  0
ARC
  5
FB
  8
0
  6
CONTINUOUS
 62
     8
 10
237.1929261969
 20
163.0607888222
 30
0.0
 40
12.96146414602905
 50
179.8842318083
 51
270.1157690884
  0
LINE
  5
FC
  8
0
  6
CONTINUOUS
 62
     8
 10
304.0520377936
 20
163.0736359074
 30
0.0
 11
304.0386956864
 21
163.0869780174
 31
0.0
  0
LINE
  5
FD
  8
0
  6
CONTINUOUS
 62
     8
 10
291.0510689047
 20
150.0993510294
 30
0.0
 11
291.0584894748
 21
150.0919304602
 31
0.0
  0
ARC
  5
FE
  8
0
  6
CONTINUOUS
 62
     8
 10
291.0772579965
 20
163.060788721
 30
0.0
 40
12.96146414923832
 50
269.8842310584
 51
0.1157690854
  0
LINE
  5
FF
  8
0
  6
CONTINUOUS
 62
     8
 10
224.218146503
 20
216.9322734361
 30
0.0
 11
224.2314886102
 21
216.9189313261
 31
0.0
  0
LINE
  5
100
  8
0
  6
CONTINUOUS
 62
     8
 10
237.219115544
 20
229.9065581553
 30
0.0
 11
237.211694614
 21
229.9139790881
 31
0.0
  0
ARC
  5
101
  8
0
  6
CONTINUOUS
 62
     8
 10
237.1929262987
 20
216.9451206231
 30
0.0
 40
12.96146414791542
 50
89.8842318084
 51
180.1157690883
  0
POLYLINE
  5
102
  8
0
  6
CONTINUOUS
 62
     8
 66
     1
 10
0.0
 20
0.0
 30
0.0
 70
   128
  0
VERTEX
  5
293
  8
0
  6
CONTINUOUS
 62
     8
 10
304.0386956883
 20
163.0869780117
 30
0.0
  0
VERTEX
  5
294
  8
0
  6
CONTINUOUS
 62
     8
 10
304.0115496598
 20
172.5220518234
 30
0.0
  0
VERTEX
  5
295
  8
0
  6
CONTINUOUS
 62
     8
 10
303.9952270946
 20
181.1483270122
 30
0.0
  0
VERTEX
  5
296
  8
0
  6
CONTINUOUS
 62
     8
 10
303.9893034056
 20
189.2665899851
 30
0.0
  0
VERTEX
  5
297
  8
0
  6
CONTINUOUS
 62
     8
 10
303.9951686847
 20
198.8133751454
 30
0.0
  0
VERTEX
  5
298
  8
0
  6
CONTINUOUS
 62
     8
 10
304.0154896283
 20
209.0608024517
 30
0.0
  0
SEQEND
  5
2F5
  8
0
  6
CONTINUOUS
 62
     8
  0
POLYLINE
  5
103
  8
0
  6
CONTINUOUS
 62
     8
 66
     1
 10
0.0
 20
0.0
 30
0.0
 70
   128
  0
VERTEX
  5
299
  8
0
  6
CONTINUOUS
 62
     8
 10
304.0154896283
 20
209.0608024517
 30
0.0
  0
VERTEX
  5
29A
  8
0
  6
CONTINUOUS
 62
     8
 10
304.0275907348
 20
213.389107829
 30
0.0
  0
VERTEX
  5
29B
  8
0
  6
CONTINUOUS
 62
     8
 10
304.0386956083
 20
216.9189312517
 30
0.0
  0
SEQEND
  5
2F6
  8
0
  6
CONTINUOUS
 62
     8
  0
POLYLINE
  5
104
  8
0
  6
CONTINUOUS
 62
     8
 66
     1
 10
0.0
 20
0.0
 30
0.0
 70
   128
  0
VERTEX
  5
29C
  8
0
  6
CONTINUOUS
 62
     8
 10
224.2314886083
 20
216.9189313317
 30
0.0
  0
VERTEX
  5
29D
  8
0
  6
CONTINUOUS
 62
     8
 10
224.2586336416
 20
207.4842699436
 30
0.0
  0
VERTEX
  5
29E
  8
0
  6
CONTINUOUS
 62
     8
 10
224.2749561936
 20
198.8583430004
 30
0.0
  0
VERTEX
  5
29F
  8
0
  6
CONTINUOUS
 62
     8
 10
224.2808809288
 20
190.7392131376
 30
0.0
  0
VERTEX
  5
2A0
  8
0
  6
CONTINUOUS
 62
     8
 10
224.275013151
 20
181.1906025709
 30
0.0
  0
VERTEX
  5
2A1
  8
0
  6
CONTINUOUS
 62
     8
 10
224.2546945883
 20
170.9451267117
 30
0.0
  0
SEQEND
  5
2F7
  8
0
  6
CONTINUOUS
 62
     8
  0
POLYLINE
  5
105
  8
0
  6
CONTINUOUS
 62
     8
 66
     1
 10
0.0
 20
0.0
 30
0.0
 70
   128
  0
VERTEX
  5
2A2
  8
0
  6
CONTINUOUS
 62
     8
 10
224.2546944976
 20
170.9451071344
 30
0.0
  0
VERTEX
  5
2A3
  8
0
  6
CONTINUOUS
 62
     8
 10
224.2425945108
 20
166.6170913938
 30
0.0
  0
VERTEX
  5
2A4
  8
0
  6
CONTINUOUS
 62
     8
 10
224.2314886383
 20
163.0869780417
 30
0.0
  0
SEQEND
  5
2F8
  8
0
  6
CONTINUOUS
 62
     8
  0
POLYLINE
  5
106
  8
0
  6
CONTINUOUS
 62
     8
 66
     1
 10
0.0
 20
0.0
 30
0.0
 70
   128
  0
VERTEX
  5
2A5
  8
0
  6
CONTINUOUS
 62
     8
 10
237.2191154883
 20
150.0993511317
 30
0.0
  0
VERTEX
  5
2A6
  8
0
  6
CONTINUOUS
 62
     8
 10
248.0323007646
 20
150.1297170157
 30
0.0
  0
VERTEX
  5
2A7
  8
0
  6
CONTINUOUS
 62
     8
 10
257.8176766404
 20
150.1457251512
 30
0.0
  0
VERTEX
  5
2A8
  8
0
  6
CONTINUOUS
 62
     8
 10
267.1109544041
 20
150.1481019054
 30
0.0
  0
VERTEX
  5
2A9
  8
0
  6
CONTINUOUS
 62
     8
 10
274.5424591141
 20
150.140592309
 30
0.0
  0
VERTEX
  5
2AA
  8
0
  6
CONTINUOUS
 62
     8
 10
282.4568267289
 20
150.1244294136
 30
0.0
  0
VERTEX
  5
2AB
  8
0
  6
CONTINUOUS
 62
     8
 10
291.0510687483
 20
150.0993511917
 30
0.0
  0
SEQEND
  5
2F9
  8
0
  6
CONTINUOUS
 62
     8
  0
POLYLINE
  5
107
  8
0
  6
CONTINUOUS
 62
     8
 66
     1
 10
0.0
 20
0.0
 30
0.0
 70
   128
  0
VERTEX
  5
2AC
  8
0
  6
CONTINUOUS
 62
     8
 10
291.0510688083
 20
229.9065582117
 30
0.0
  0
VERTEX
  5
2AD
  8
0
  6
CONTINUOUS
 62
     8
 10
280.2378835321
 20
229.8761923277
 30
0.0
  0
VERTEX
  5
2AE
  8
0
  6
CONTINUOUS
 62
     8
 10
270.4525076566
 20
229.8601841922
 30
0.0
  0
VERTEX
  5
2AF
  8
0
  6
CONTINUOUS
 62
     8
 10
261.1592298925
 20
229.857807438
 30
0.0
  0
VERTEX
  5
2B0
  8
0
  6
CONTINUOUS
 62
     8
 10
253.7277251825
 20
229.8653170344
 30
0.0
  0
VERTEX
  5
2B1
  8
0
  6
CONTINUOUS
 62
     8
 10
245.8133575677
 20
229.8814799298
 30
0.0
  0
VERTEX
  5
2B2
  8
0
  6
CONTINUOUS
 62
     8
 10
237.2191155483
 20
229.9065581517
 30
0.0
  0
SEQEND
  5
2FA
  8
0
  6
CONTINUOUS
 62
     8
  0
ARC
  5
108
  8
0
  6
CONTINUOUS
 62
     8
 10
227.7234881238
 20
202.1184047838
 30
0.0
 40
15.20689470972868
 50
86.151429767
 51
103.2754452314
  0
ARC
  5
109
  8
0
  6
CONTINUOUS
 62
     8
 10
253.2771688965
 20
226.3108733375
 30
0.0
 40
16.45569891001138
 50
167.3786450479
 51
183.1944705392
  0
ARC
  5
10A
  8
0
  6
CONTINUOUS
 62
     8
 10
236.8737107611
 20
217.2643358035
 30
0.0
 40
8.129583822786836
 50
90.187971191
 51
179.8120269878
  0
ARC
  5
10B
  8
0
  6
CONTINUOUS
 62
     8
 10
300.5466961727
 20
177.8875045597
 30
0.0
 40
15.20689470972678
 50
266.151429767
 51
283.2754452314
  0
ARC
  5
10C
  8
0
  6
CONTINUOUS
 62
     8
 10
274.9929933008
 20
153.6950815679
 30
0.0
 40
16.45569793725997
 50
347.3784829712
 51
3.1943167946
  0
ARC
  5
10D
  8
0
  6
CONTINUOUS
 62
     8
 10
291.3964735381
 20
162.7415735373
 30
0.0
 40
8.129583820168302
 50
270.1879711727
 51
359.8120270061
  0
ARC
  5
10E
  8
0
  6
CONTINUOUS
 62
     8
 10
276.2505422604
 20
226.4145586962
 30
0.0
 40
15.20689470972647
 50
356.151429767
 51
13.2754452314
  0
ARC
  5
10F
  8
0
  6
CONTINUOUS
 62
     8
 10
300.4429652521
 20
200.8608558242
 30
0.0
 40
16.45569793726691
 50
77.3784829712
 51
93.1943167946
  0
ARC
  5
110
  8
0
  6
CONTINUOUS
 62
     8
 10
291.3964732801
 20
217.2643360589
 30
0.0
 40
8.129583822786888
 50
0.187971191
 51
89.8120269878
  0
ARC
  5
111
  8
0
  6
CONTINUOUS
 62
     8
 10
252.0196420362
 20
153.5913506473
 30
0.0
 40
15.20689470973132
 50
176.151429767
 51
193.2754452314
  0
ARC
  5
112
  8
0
  6
CONTINUOUS
 62
     8
 10
227.8272190445
 20
179.1450535193
 30
0.0
 40
16.455697937266
 50
257.3784829712
 51
273.1943167946
  0
ARC
  5
113
  8
0
  6
CONTINUOUS
 62
     8
 10
236.8737110169
 20
162.7415732849
 30
0.0
 40
8.129583823213682
 50
180.187971194
 51
269.8120269848
  0
POLYLINE
  5
114
  8
0
  6
CONTINUOUS
 62
     8
 66
     1
 10
0.0
 20
0.0
 30
0.0
 70
   128
  0
VERTEX
  5
2B3
  8
0
  6
CONTINUOUS
 62
     8
 10
236.8470543231
 20
225.3938769996
 30
0.0
  0
VERTEX
  5
2B4
  8
0
  6
CONTINUOUS
 62
     8
 10
246.6389995673
 20
225.4297989111
 30
0.0
  0
VERTEX
  5
2B5
  8
0
  6
CONTINUOUS
 62
     8
 10
255.6242672777
 20
225.4594753047
 30
0.0
  0
VERTEX
  5
2B6
  8
0
  6
CONTINUOUS
 62
     8
 10
264.1366797875
 20
225.4712252728
 30
0.0
  0
VERTEX
  5
2B7
  8
0
  6
CONTINUOUS
 62
     8
 10
272.6494052034
 20
225.4594655516
 30
0.0
  0
VERTEX
  5
2B8
  8
0
  6
CONTINUOUS
 62
     8
 10
281.6329719061
 20
225.4297922154
 30
0.0
  0
VERTEX
  5
2B9
  8
0
  6
CONTINUOUS
 62
     8
 10
291.4231443379
 20
225.3938761312
 30
0.0
  0
SEQEND
  5
2FB
  8
0
  6
CONTINUOUS
 62
     8
  0
POLYLINE
  5
115
  8
0
  6
CONTINUOUS
 62
     8
 66
     1
 10
0.0
 20
0.0
 30
0.0
 70
   128
  0
VERTEX
  5
2BA
  8
0
  6
CONTINUOUS
 62
     8
 10
291.4231299735
 20
154.6120323439
 30
0.0
  0
VERTEX
  5
2BB
  8
0
  6
CONTINUOUS
 62
     8
 10
281.6311847283
 20
154.5761104321
 30
0.0
  0
VERTEX
  5
2BC
  8
0
  6
CONTINUOUS
 62
     8
 10
272.64591702
 20
154.5464340388
 30
0.0
  0
VERTEX
  5
2BD
  8
0
  6
CONTINUOUS
 62
     8
 10
264.1335045091
 20
154.5346840707
 30
0.0
  0
VERTEX
  5
2BE
  8
0
  6
CONTINUOUS
 62
     8
 10
255.6207790926
 20
154.5464437919
 30
0.0
  0
VERTEX
  5
2BF
  8
0
  6
CONTINUOUS
 62
     8
 10
246.6372123918
 20
154.5761171278
 30
0.0
  0
VERTEX
  5
2C0
  8
0
  6
CONTINUOUS
 62
     8
 10
236.8470399587
 20
154.6120332122
 30
0.0
  0
SEQEND
  5
2FC
  8
0
  6
CONTINUOUS
 62
     8
  0
POLYLINE
  5
116
  8
0
  6
CONTINUOUS
 62
     8
 66
     1
 10
0.0
 20
0.0
 30
0.0
 70
   128
  0
VERTEX
  5
2C1
  8
0
  6
CONTINUOUS
 62
     8
 10
228.7151851281
 20
170.6529919995
 30
0.0
  0
VERTEX
  5
2C2
  8
0
  6
CONTINUOUS
 62
     8
 10
228.6822052897
 20
180.1152395184
 30
0.0
  0
VERTEX
  5
2C3
  8
0
  6
CONTINUOUS
 62
     8
 10
228.6670943048
 20
189.0063461566
 30
0.0
  0
VERTEX
  5
2C4
  8
0
  6
CONTINUOUS
 62
     8
 10
228.6766755821
 20
197.816410992
 30
0.0
  0
VERTEX
  5
2C5
  8
0
  6
CONTINUOUS
 62
     8
 10
228.7069704145
 20
207.1440029951
 30
0.0
  0
VERTEX
  5
2C6
  8
0
  6
CONTINUOUS
 62
     8
 10
228.7441706888
 20
217.2910068613
 30
0.0
  0
SEQEND
  5
2FD
  8
0
  6
CONTINUOUS
 62
     8
  0
POLYLINE
  5
117
  8
0
  6
CONTINUOUS
 62
     8
 66
     1
 10
0.0
 20
0.0
 30
0.0
 70
   128
  0
VERTEX
  5
2C7
  8
0
  6
CONTINUOUS
 62
     8
 10
299.5550005683
 20
209.3529388317
 30
0.0
  0
VERTEX
  5
2C8
  8
0
  6
CONTINUOUS
 62
     8
 10
299.5879821391
 20
199.8890637335
 30
0.0
  0
VERTEX
  5
2C9
  8
0
  6
CONTINUOUS
 62
     8
 10
299.6031631166
 20
191.0026266655
 30
0.0
  0
VERTEX
  5
2CA
  8
0
  6
CONTINUOUS
 62
     8
 10
299.5935105348
 20
182.1902385168
 30
0.0
  0
VERTEX
  5
2CB
  8
0
  6
CONTINUOUS
 62
     8
 10
299.5632154766
 20
172.8623459751
 30
0.0
  0
VERTEX
  5
2CC
  8
0
  6
CONTINUOUS
 62
     8
 10
299.5260136078
 20
162.7149024821
 30
0.0
  0
SEQEND
  5
2FE
  8
0
  6
CONTINUOUS
 62
     8
  0
LINE
  5
118
  8
0
  6
CONTINUOUS
 62
     8
 10
228.7441702637
 20
162.7149024021
 30
0.0
 11
228.7151856916
 21
170.6529705033
 31
0.0
  0
LINE
  5
119
  8
0
  6
CONTINUOUS
 62
     8
 10
299.526014785
 20
217.2909872961
 30
0.0
 11
299.5550005683
 21
209.3529388317
 31
0.0
  0
ARC
  5
11A
  8
0
  6
CONTINUOUS
 62
     8
 10
264.1350921483
 20
190.0029546717
 30
0.0
 40
34.70786987996265
 50
28.6478897589
 51
208.6478839158
  0
ARC
  5
11B
  8
0
  6
CONTINUOUS
 62
     8
 10
264.1350921483
 20
190.0029546717
 30
0.0
 40
34.70786987996265
 50
208.6478839158
 51
28.6478897589
  0
ARC
  5
11C
  8
0
  6
CONTINUOUS
 62
     8
 10
264.1350921483
 20
190.0029546717
 30
0.0
 40
30.74737339957769
 50
208.6478897528
 51
28.6478897535
  0
ARC
  5
11D
  8
0
  6
CONTINUOUS
 62
     8
 10
264.1350921483
 20
190.0029546717
 30
0.0
 40
30.74737339957769
 50
28.6478897535
 51
208.6478897528
  0
CIRCLE
  5
11E
  8
0
  6
CONTINUOUS
 62
     8
 10
264.1350921483
 20
190.0029546717
 30
0.0
 40
26.19351997009842
  0
ARC
  5
11F
  8
0
  6
CONTINUOUS
 62
     8
 10
264.1348906174
 20
190.0033235715
 30
0.0
 40
24.00000000383576
 50
28.6468862226
 51
208.6488932895
  0
ARC
  5
120
  8
0
  6
CONTINUOUS
 62
     8
 10
264.1352936792
 20
190.0025857719
 30
0.0
 40
24.00000000383572
 50
208.6468862226
 51
28.6488932895
  0
LINE
  5
121
  8
0
  6
CENTERX2
 62
     7
 10
264.1350873733
 20
340.0029546717
 30
0.0
 11
264.1350873733
 21
40.0029546717
 31
0.0
  0
LINE
  5
122
  8
0
  6
CENTERX2
 62
     7
 10
582.6350921483
 20
190.0029546717
 30
0.0
 11
34.6350921483
 21
190.0029546717
 31
0.0
  0
LINE
  5
123
  8
0
  6
CONTINUOUS
 62
     7
 10
236.0533952765
 20
431.2666008845
 30
0.0
 11
236.4792255351
 21
430.8101958791
 31
0.0
  0
LINE
  5
124
  8
0
  6
CONTINUOUS
 62
     7
 10
291.7909587614
 20
430.8101958791
 30
0.0
 11
292.2167890201
 21
431.2666008845
 31
0.0
  0
ARC
  5
125
  8
0
  6
CONTINUOUS
 62
     7
 10
240.1350921425
 20
434.2211545945
 30
0.0
 40
5.00000000000019
 50
223.0151517561
 51
270.0
  0
ARC
  5
126
  8
0
  6
CONTINUOUS
 62
     7
 10
288.135092154
 20
434.2211545945
 30
0.0
 40
5.000000000000227
 50
270.0
 51
316.9848482439
  0
LINE
  5
127
  8
0
  6
CONTINUOUS
 62
     7
 10
419.1986596483
 20
531.2666008845
 30
0.0
 11
109.0715196483
 21
531.2666008845
 31
0.0
  0
LINE
  5
128
  8
0
  6
CONTINUOUS
 62
     7
 10
33.6350921483
 20
528.2666008845
 30
0.0
 11
33.6350921483
 21
434.2666008848
 31
0.0
  0
LINE
  5
129
  8
0
  6
CONTINUOUS
 62
     7
 10
419.1986597104
 20
531.2666008845
 30
0.0
 11
580.6350921483
 21
531.2666008845
 31
0.0
  0
LINE
  5
12A
  8
0
  6
CONTINUOUS
 62
     7
 10
36.6351376636
 20
531.2666008845
 30
0.0
 11
109.0715187483
 21
531.2666008845
 31
0.0
  0
ARC
  5
12B
  8
0
  6
CONTINUOUS
 62
     7
 10
36.6350921483
 20
528.2666008845
 30
0.0
 40
3.000000000000007
 50
90.0
 51
180.0
  0
ARC
  5
12C
  8
0
  6
CONTINUOUS
 62
     7
 10
580.6350871791
 20
528.2665959153
 30
0.0
 40
3.00000496921441
 50
0.0000949048
 51
89.9999050952
  0
LINE
  5
12D
  8
0
  6
CONTINUOUS
 62
     7
 10
583.6350921483
 20
528.2666008845
 30
0.0
 11
583.6350921483
 21
434.2666008845
 31
0.0
  0
LINE
  5
12E
  8
0
  6
CONTINUOUS
 62
     7
 10
580.6350921483
 20
431.2666008845
 30
0.0
 11
36.6350921483
 21
431.2666008845
 31
0.0
  0
ARC
  5
12F
  8
0
  6
CONTINUOUS
 62
     7
 10
36.6350921483
 20
434.2666008845
 30
0.0
 40
3.0
 50
179.9999999951
 51
270.0
  0
ARC
  5
130
  8
0
  6
CONTINUOUS
 62
     7
 10
580.6350921483
 20
434.2666008845
 30
0.0
 40
3.0
 50
270.0
 51
0.0
  0
ARC
  5
131
  8
0
  6
CONTINUOUS
 62
     7
 10
580.6350921483
 20
528.2666008845
 30
0.0
 40
2.999999999999659
 50
360.0
 51
90.0
  0
LINE
  5
132
  8
0
  6
CONTINUOUS
 62
     7
 10
243.0731106627
 20
429.2211545845
 30
0.0
 11
240.160925598
 21
429.2211545845
 31
0.0
  0
LINE
  5
133
  8
0
  6
CONTINUOUS
 62
     7
 10
288.0553565318
 20
429.2211545845
 30
0.0
 11
243.0731106627
 21
429.2211545845
 31
0.0
  0
ARC
  5
134
  8
0
  6
CONTINUOUS
 62
     7
 10
580.6350871791
 20
528.2665959153
 30
0.0
 40
3.00000496921441
 50
0.0000949048
 51
89.9999050952
  0
LINE
  5
135
  8
0
  6
CONTINUOUS
 62
     8
 10
419.1986464483
 20
528.2666008845
 30
0.0
 11
109.0715191983
 21
528.2666008845
 31
0.0
  0
LINE
  5
136
  8
0
  6
CONTINUOUS
 62
     8
 10
580.6350921483
 20
528.2666008845
 30
0.0
 11
419.1986464483
 21
528.2666008845
 31
0.0
  0
LINE
  5
137
  8
0
  6
CONTINUOUS
 62
     8
 10
580.6350921483
 20
528.2666008845
 30
0.0
 11
580.6350921483
 21
434.2666008845
 31
0.0
  0
LINE
  5
138
  8
0
  6
CONTINUOUS
 62
     8
 10
36.6350921483
 20
434.2666008845
 30
0.0
 11
580.6350921483
 21
434.2666008845
 31
0.0
  0
LINE
  5
139
  8
0
  6
CONTINUOUS
 62
     8
 10
36.6350921483
 20
528.2666008845
 30
0.0
 11
36.6350921483
 21
434.2666008845
 31
0.0
  0
LINE
  5
13A
  8
0
  6
CONTINUOUS
 62
     8
 10
109.0715191983
 20
528.2666008845
 30
0.0
 11
36.6350921483
 21
528.2666008845
 31
0.0
  0
LINE
  5
13B
  8
0
  6
CONTINUOUS
 62
     8
 10
419.1986646483
 20
528.2666008845
 30
0.0
 11
419.1986646483
 21
531.2666008844
 31
0.0
  0
LINE
  5
13C
  8
0
  6
CONTINUOUS
 62
     8
 10
109.0715196483
 20
531.2666008845
 30
0.0
 11
109.0715196483
 21
528.2666008845
 31
0.0
  0
LINE
  5
13D
  8
0
  6
CONTINUOUS
 62
     8
 10
36.6350921483
 20
528.2666008845
 30
0.0
 11
33.6350921483
 21
528.2666008845
 31
0.0
  0
LINE
  5
13E
  8
0
  6
CONTINUOUS
 62
     8
 10
33.6350921483
 20
434.2666008848
 30
0.0
 11
36.6350921483
 21
434.2666008845
 31
0.0
  0
LINE
  5
13F
  8
0
  6
CONTINUOUS
 62
     8
 10
580.6350921483
 20
531.2666008845
 30
0.0
 11
580.6350921483
 21
528.2666008845
 31
0.0
  0
LINE
  5
140
  8
0
  6
CONTINUOUS
 62
     8
 10
36.6350921483
 20
528.2666008845
 30
0.0
 11
36.6350921483
 21
531.2666008845
 31
0.0
  0
LINE
  5
141
  8
0
  6
CONTINUOUS
 62
     8
 10
583.6350921483
 20
528.2666008845
 30
0.0
 11
580.6350921483
 21
528.2666008845
 31
0.0
  0
LINE
  5
142
  8
0
  6
CONTINUOUS
 62
     8
 10
580.6350921483
 20
434.2666008845
 30
0.0
 11
583.6350921483
 21
434.2666008845
 31
0.0
  0
LINE
  5
143
  8
0
  6
CONTINUOUS
 62
     8
 10
36.6350921483
 20
434.2666008845
 30
0.0
 11
36.6350921483
 21
431.2666008845
 31
0.0
  0
LINE
  5
144
  8
0
  6
CONTINUOUS
 62
     8
 10
580.6350921483
 20
434.2666008845
 30
0.0
 11
580.6350921483
 21
431.2666008845
 31
0.0
  0
LINE
  5
145
  8
0
  6
CONTINUOUS
 62
     8
 10
291.7909587614
 20
430.8101958791
 30
0.0
 11
236.4792255351
 21
430.8101958791
 31
0.0
  0
LINE
  5
146
  8
0
  6
CONTINUOUS
 62
     7
 10
768.0568112621
 20
431.2666008845
 30
0.0
 11
768.4826415208
 21
430.8101958791
 31
0.0
  0
LINE
  5
147
  8
0
  6
CONTINUOUS
 62
     7
 10
823.7943747471
 20
430.8101958791
 30
0.0
 11
824.2202050058
 21
431.2666008845
 31
0.0
  0
ARC
  5
148
  8
0
  6
CONTINUOUS
 62
     7
 10
772.1385081282
 20
434.2211545945
 30
0.0
 40
5.000000000000091
 50
223.0151517561
 51
270.0
  0
ARC
  5
149
  8
0
  6
CONTINUOUS
 62
     7
 10
820.1385081397
 20
434.2211545945
 30
0.0
 40
5.000000000000114
 50
270.0
 51
316.9848482439
  0
LINE
  5
14A
  8
0
  6
CONTINUOUS
 62
     7
 10
866.781088594
 20
531.2666008845
 30
0.0
 11
725.495927674
 21
531.2666008845
 31
0.0
  0
LINE
  5
14B
  8
0
  6
CONTINUOUS
 62
     7
 10
943.138508134
 20
531.2666008845
 30
0.0
 11
866.781094054
 21
531.2666008845
 31
0.0
  0
ARC
  5
14C
  8
0
  6
CONTINUOUS
 62
     7
 10
943.138508134
 20
528.2666008845
 30
0.0
 40
2.999999999999886
 50
360.0
 51
90.0
  0
ARC
  5
14D
  8
0
  6
CONTINUOUS
 62
     7
 10
649.138508134
 20
528.2666008845
 30
0.0
 40
3.0
 50
90.0
 51
180.0
  0
LINE
  5
14E
  8
0
  6
CONTINUOUS
 62
     7
 10
725.495923154
 20
531.2666008845
 30
0.0
 11
649.1385534616
 21
531.2666008845
 31
0.0
  0
LINE
  5
14F
  8
0
  6
CONTINUOUS
 62
     7
 10
646.138508134
 20
434.2666008845
 30
0.0
 11
646.138508134
 21
528.2666008845
 31
0.0
  0
LINE
  5
150
  8
0
  6
CONTINUOUS
 62
     7
 10
946.138508134
 20
528.2666008845
 30
0.0
 11
946.138508134
 21
434.2666008845
 31
0.0
  0
ARC
  5
151
  8
0
  6
CONTINUOUS
 62
     7
 10
649.138508134
 20
434.2666008845
 30
0.0
 40
3.000000000000057
 50
180.0
 51
270.0
  0
LINE
  5
152
  8
0
  6
CONTINUOUS
 62
     7
 10
943.138508134
 20
431.2666008845
 30
0.0
 11
649.138508134
 21
431.2666008845
 31
0.0
  0
ARC
  5
153
  8
0
  6
CONTINUOUS
 62
     7
 10
943.138508134
 20
434.2666008845
 30
0.0
 40
3.000000000000057
 50
270.0
 51
0.0
  0
ARC
  5
154
  8
0
  6
CONTINUOUS
 62
     7
 10
943.138508134
 20
528.2666008845
 30
0.0
 40
3.0
 50
0.0
 51
90.0
  0
LINE
  5
155
  8
0
  6
CONTINUOUS
 62
     7
 10
807.6447210604
 20
429.2211545845
 30
0.0
 11
772.1397183872
 21
429.2211545845
 31
0.0
  0
LINE
  5
156
  8
0
  6
CONTINUOUS
 62
     7
 10
820.1260675434
 20
429.2211545845
 30
0.0
 11
807.6447210604
 21
429.2211545845
 31
0.0
  0
LINE
  5
157
  8
0
  6
CONTINUOUS
 62
     8
 10
866.781088594
 20
528.2666008845
 30
0.0
 11
725.495927674
 21
528.2666008845
 31
0.0
  0
LINE
  5
158
  8
0
  6
CONTINUOUS
 62
     8
 10
943.138508134
 20
528.2666008845
 30
0.0
 11
866.781094054
 21
528.2666008845
 31
0.0
  0
LINE
  5
159
  8
0
  6
CONTINUOUS
 62
     8
 10
943.138508134
 20
528.2666008845
 30
0.0
 11
943.138508134
 21
434.2666008848
 31
0.0
  0
LINE
  5
15A
  8
0
  6
CONTINUOUS
 62
     8
 10
943.138508134
 20
434.2666008848
 30
0.0
 11
649.138508134
 21
434.2666008845
 31
0.0
  0
LINE
  5
15B
  8
0
  6
CONTINUOUS
 62
     8
 10
649.138508134
 20
434.2666008845
 30
0.0
 11
649.138508134
 21
528.266600885
 31
0.0
  0
LINE
  5
15C
  8
0
  6
CONTINUOUS
 62
     8
 10
725.495927674
 20
528.2666008845
 30
0.0
 11
649.138508134
 21
528.266600885
 31
0.0
  0
LINE
  5
15D
  8
0
  6
CONTINUOUS
 62
     8
 10
866.781088594
 20
528.2666008845
 30
0.0
 11
866.781088594
 21
531.2666008845
 31
0.0
  0
LINE
  5
15E
  8
0
  6
CONTINUOUS
 62
     8
 10
725.495927674
 20
531.2666008845
 30
0.0
 11
725.495927674
 21
528.2666008845
 31
0.0
  0
LINE
  5
15F
  8
0
  6
CONTINUOUS
 62
     8
 10
943.138508134
 20
531.2666008845
 30
0.0
 11
943.138508134
 21
528.2666008845
 31
0.0
  0
LINE
  5
160
  8
0
  6
CONTINUOUS
 62
     8
 10
946.138508134
 20
528.2666008845
 30
0.0
 11
943.138508134
 21
528.2666008845
 31
0.0
  0
LINE
  5
161
  8
0
  6
CONTINUOUS
 62
     8
 10
649.138508134
 20
528.266600885
 30
0.0
 11
649.138508134
 21
531.2666008845
 31
0.0
  0
LINE
  5
162
  8
0
  6
CONTINUOUS
 62
     8
 10
649.138508134
 20
528.266600885
 30
0.0
 11
646.138508134
 21
528.2666008845
 31
0.0
  0
LINE
  5
163
  8
0
  6
CONTINUOUS
 62
     8
 10
646.138508134
 20
434.2666008845
 30
0.0
 11
649.138508134
 21
434.2666008845
 31
0.0
  0
LINE
  5
164
  8
0
  6
CONTINUOUS
 62
     8
 10
943.138508134
 20
434.2666008848
 30
0.0
 11
946.138508134
 21
434.2666008845
 31
0.0
  0
LINE
  5
165
  8
0
  6
CONTINUOUS
 62
     8
 10
649.138508134
 20
434.2666008845
 30
0.0
 11
649.138508134
 21
431.2666008845
 31
0.0
  0
LINE
  5
166
  8
0
  6
CONTINUOUS
 62
     8
 10
943.138508134
 20
431.2666008845
 30
0.0
 11
943.138508134
 21
434.2666008848
 31
0.0
  0
LINE
  5
167
  8
0
  6
CONTINUOUS
 62
     8
 10
823.7943747471
 20
430.8101958791
 30
0.0
 11
768.4826415208
 21
430.8101958791
 31
0.0
  0
ENDSEC
  0
EOF
